  0
SECTION
  2
HEADER
  9
$ACADVER
  1
AC1015
  9
$ACADMAINTVER
 70
     6
  9
$DWGCODEPAGE
  3
ANSI_1254
  9
$INSBASE
 10
0.0
 20
0.0
 30
0.0
  9
$EXTMIN
 10
0.0
 20
0.0
 30
0.0
  9
$EXTMAX
 10
279.4
 20
215.9
 30
0.0
  9
$LIMMIN
 10
0.0
 20
0.0
  9
$LIMMAX
 10
279.4
 20
215.9
  9
$ORTHOMODE
 70
     0
  9
$REGENMODE
 70
     1
  9
$FILLMODE
 70
     1
  9
$QTEXTMODE
 70
     0
  9
$MIRRTEXT
 70
     1
  9
$LTSCALE
 40
1.0
  9
$ATTMODE
 70
     1
  9
$TEXTSIZE
 40
3.5
  9
$TRACEWID
 40
1.0
  9
$TEXTSTYLE
  7
Standard
  9
$CLAYER
  8
0
  9
$CELTYPE
  6
ByLayer
  9
$CECOLOR
 62
   256
  9
$CELTSCALE
 40
1.0
  9
$DISPSILH
 70
     0
  9
$DIMSCALE
 40
1.0
  9
$DIMASZ
 40
3.5
  9
$DIMEXO
 40
1.0
  9
$DIMDLI
 40
3.75
  9
$DIMRND
 40
0.0
  9
$DIMDLE
 40
0.0
  9
$DIMEXE
 40
1.0
  9
$DIMTP
 40
0.0
  9
$DIMTM
 40
0.0
  9
$DIMTXT
 40
3.5
  9
$DIMCEN
 40
2.5
  9
$DIMTSZ
 40
0.0
  9
$DIMTOL
 70
     0
  9
$DIMLIM
 70
     0
  9
$DIMTIH
 70
     1
  9
$DIMTOH
 70
     1
  9
$DIMSE1
 70
     0
  9
$DIMSE2
 70
     0
  9
$DIMTAD
 70
     1
  9
$DIMZIN
 70
     0
  9
$DIMBLK
  1

  9
$DIMASO
 70
     1
  9
$DIMSHO
 70
     1
  9
$DIMPOST
  1

  9
$DIMAPOST
  1

  9
$DIMALT
 70
     0
  9
$DIMALTD
 70
     3
  9
$DIMALTF
 40
0.0393700787
  9
$DIMLFAC
 40
1.0
  9
$DIMTOFL
 70
     1
  9
$DIMTVP
 40
0.0
  9
$DIMTIX
 70
     0
  9
$DIMSOXD
 70
     0
  9
$DIMSAH
 70
     0
  9
$DIMBLK1
  1

  9
$DIMBLK2
  1

  9
$DIMSTYLE
  2
ISO-25
  9
$DIMCLRD
 70
     0
  9
$DIMCLRE
 70
     0
  9
$DIMCLRT
 70
     0
  9
$DIMTFAC
 40
1.0
  9
$DIMGAP
 40
1.524
  9
$DIMJUST
 70
     0
  9
$DIMSD1
 70
     0
  9
$DIMSD2
 70
     0
  9
$DIMTOLJ
 70
     0
  9
$DIMTZIN
 70
     0
  9
$DIMALTZ
 70
     0
  9
$DIMALTTZ
 70
     0
  9
$DIMUPT
 70
     0
  9
$DIMDEC
 70
     2
  9
$DIMTDEC
 70
     2
  9
$DIMALTU
 70
     2
  9
$DIMALTTD
 70
     3
  9
$DIMTXSTY
  7
Standard
  9
$DIMAUNIT
 70
     0
  9
$DIMADEC
 70
     2
  9
$DIMALTRND
 40
0.0
  9
$DIMAZIN
 70
     0
  9
$DIMDSEP
 70
    44
  9
$DIMATFIT
 70
     3
  9
$DIMFRAC
 70
     0
  9
$DIMLDRBLK
  1

  9
$DIMLUNIT
 70
     2
  9
$DIMLWD
 70
    -2
  9
$DIMLWE
 70
    -2
  9
$DIMTMOVE
 70
     0
  9
$LUNITS
 70
     2
  9
$LUPREC
 70
     2
  9
$SKETCHINC
 40
1.0
  9
$FILLETRAD
 40
10.0
  9
$AUNITS
 70
     0
  9
$AUPREC
 70
     2
  9
$MENU
  1
.
  9
$ELEVATION
 40
0.0
  9
$PELEVATION
 40
0.0
  9
$THICKNESS
 40
0.0
  9
$LIMCHECK
 70
     0
  9
$CHAMFERA
 40
0.0
  9
$CHAMFERB
 40
0.0
  9
$CHAMFERC
 40
0.0
  9
$CHAMFERD
 40
0.0
  9
$SKPOLY
 70
     0
  9
$TDCREATE
 40
2459741.604546146
  9
$TDUCREATE
 40
2459741.479546146
  9
$TDUPDATE
 40
2459741.604546331
  9
$TDUUPDATE
 40
2459741.479546331
  9
$TDINDWG
 40
0.0000000116
  9
$TDUSRTIMER
 40
0.0000000116
  9
$USRTIMER
 70
     1
  9
$ANGBASE
 50
0.0
  9
$ANGDIR
 70
     0
  9
$PDMODE
 70
     0
  9
$PDSIZE
 40
-1.0
  9
$PLINEWID
 40
0.0
  9
$SPLFRAME
 70
     0
  9
$SPLINETYPE
 70
     6
  9
$SPLINESEGS
 70
     8
  9
$HANDSEED
  5
11F
  9
$SURFTAB1
 70
     6
  9
$SURFTAB2
 70
     6
  9
$SURFTYPE
 70
     6
  9
$SURFU
 70
     6
  9
$SURFV
 70
     6
  9
$UCSBASE
  2

  9
$UCSNAME
  2

  9
$UCSORG
 10
0.0
 20
0.0
 30
0.0
  9
$UCSXDIR
 10
1.0
 20
0.0
 30
0.0
  9
$UCSYDIR
 10
0.0
 20
1.0
 30
0.0
  9
$UCSORTHOREF
  2

  9
$UCSORTHOVIEW
 70
     0
  9
$UCSORGTOP
 10
0.0
 20
0.0
 30
0.0
  9
$UCSORGBOTTOM
 10
0.0
 20
0.0
 30
0.0
  9
$UCSORGLEFT
 10
0.0
 20
0.0
 30
0.0
  9
$UCSORGRIGHT
 10
0.0
 20
0.0
 30
0.0
  9
$UCSORGFRONT
 10
0.0
 20
0.0
 30
0.0
  9
$UCSORGBACK
 10
0.0
 20
0.0
 30
0.0
  9
$PUCSBASE
  2

  9
$PUCSNAME
  2

  9
$PUCSORG
 10
0.0
 20
0.0
 30
0.0
  9
$PUCSXDIR
 10
1.0
 20
0.0
 30
0.0
  9
$PUCSYDIR
 10
0.0
 20
1.0
 30
0.0
  9
$PUCSORTHOREF
  2

  9
$PUCSORTHOVIEW
 70
     0
  9
$PUCSORGTOP
 10
0.0
 20
0.0
 30
0.0
  9
$PUCSORGBOTTOM
 10
0.0
 20
0.0
 30
0.0
  9
$PUCSORGLEFT
 10
0.0
 20
0.0
 30
0.0
  9
$PUCSORGRIGHT
 10
0.0
 20
0.0
 30
0.0
  9
$PUCSORGFRONT
 10
0.0
 20
0.0
 30
0.0
  9
$PUCSORGBACK
 10
0.0
 20
0.0
 30
0.0
  9
$USERI1
 70
     0
  9
$USERI2
 70
     0
  9
$USERI3
 70
     0
  9
$USERI4
 70
     0
  9
$USERI5
 70
     0
  9
$USERR1
 40
0.0
  9
$USERR2
 40
0.0
  9
$USERR3
 40
0.0
  9
$USERR4
 40
0.0
  9
$USERR5
 40
0.0
  9
$WORLDVIEW
 70
     1
  9
$SHADEDGE
 70
     3
  9
$SHADEDIF
 70
    70
  9
$TILEMODE
 70
     1
  9
$MAXACTVP
 70
    64
  9
$PINSBASE
 10
0.0
 20
0.0
 30
0.0
  9
$PLIMCHECK
 70
     0
  9
$PEXTMIN
 10
1.0000000000E+20
 20
1.0000000000E+20
 30
1.0000000000E+20
  9
$PEXTMAX
 10
-1.0000000000E+20
 20
-1.0000000000E+20
 30
-1.0000000000E+20
  9
$PLIMMIN
 10
0.0
 20
0.0
  9
$PLIMMAX
 10
420.0
 20
297.0
  9
$UNITMODE
 70
     0
  9
$VISRETAIN
 70
     1
  9
$PLINEGEN
 70
     0
  9
$PSLTSCALE
 70
     1
  9
$TREEDEPTH
 70
  3020
  9
$CMLSTYLE
  2
Standard
  9
$CMLJUST
 70
     0
  9
$CMLSCALE
 40
20.0
  9
$PROXYGRAPHICS
 70
     1
  9
$MEASUREMENT
 70
     1
  9
$CELWEIGHT
370
    -1
  9
$ENDCAPS
280
     0
  9
$JOINSTYLE
280
     0
  9
$LWDISPLAY
290
     1
  9
$INSUNITS
 70
     4
  9
$HYPERLINKBASE
  1

  9
$STYLESHEET
  1

  9
$XEDIT
290
     1
  9
$CEPSNTYPE
380
     0
  9
$PSTYLEMODE
290
     1
  9
$FINGERPRINTGUID
  2
{8a7fcdf9-72c8-4887-88c6-fd2a0b9a0ca7}
  9
$VERSIONGUID
  2
{FAEB1C32-E019-11D5-929B-00C0DF256EC4}
  9
$EXTNAMES
290
     1
  9
$PSVPSCALE
 40
0.0
  9
$OLESTARTUP
290
     0
  0
ENDSEC
  0
SECTION
  2
CLASSES
  0
CLASS
  1
ACDBDICTIONARYWDFLT
  2
AcDbDictionaryWithDefault
  3
ObjectDBX Classes
 90
        0
280
     0
281
     0
  0
CLASS
  1
VISUALSTYLE
  2
AcDbVisualStyle
  3
ObjectDBX Classes
 90
     4095
280
     0
281
     0
  0
CLASS
  1
MATERIAL
  2
AcDbMaterial
  3
ObjectDBX Classes
 90
     1153
280
     0
281
     0
  0
CLASS
  1
SCALE
  2
AcDbScale
  3
ObjectDBX Classes
 90
     1153
280
     0
281
     0
  0
CLASS
  1
TABLESTYLE
  2
AcDbTableStyle
  3
ObjectDBX Classes
 90
     4095
280
     0
281
     0
  0
CLASS
  1
MLEADERSTYLE
  2
AcDbMLeaderStyle
  3
ACDB_MLEADERSTYLE_CLASS
 90
     4095
280
     0
281
     0
  0
CLASS
  1
SUN
  2
AcDbSun
  3
SCENEOE
 90
     1153
280
     0
281
     0
  0
CLASS
  1
ACDBPLACEHOLDER
  2
AcDbPlaceHolder
  3
ObjectDBX Classes
 90
        0
280
     0
281
     0
  0
CLASS
  1
LAYOUT
  2
AcDbLayout
  3
ObjectDBX Classes
 90
        0
280
     0
281
     0
  0
ENDSEC
  0
SECTION
  2
TABLES
  0
TABLE
  2
VPORT
  5
8
330
0
100
AcDbSymbolTable
 70
     1
  0
VPORT
  5
29
330
8
100
AcDbSymbolTableRecord
100
AcDbViewportTableRecord
  2
*Active
 70
     0
 10
0.0
 20
0.0
 11
1.0
 21
1.0
 12
139.7
 22
107.95
 13
0.0
 23
0.0
 14
10.0
 24
10.0
 15
10.0
 25
10.0
 16
0.0
 26
0.0
 36
1.0
 17
0.0
 27
0.0
 37
0.0
 40
215.9
 41
1.2941176471
 42
50.0
 43
0.0
 44
0.0
 50
0.0
 51
0.0
 71
     0
 72
  2000
 73
     1
 74
     3
 75
     0
 76
     0
 77
     0
 78
     0
281
     0
 65
     1
110
0.0
120
0.0
130
0.0
111
1.0
121
0.0
131
0.0
112
0.0
122
1.0
132
0.0
 79
     0
146
0.0
  0
ENDTAB
  0
TABLE
  2
LTYPE
  5
5
330
0
100
AcDbSymbolTable
 70
     6
  0
LTYPE
  5
14
330
5
100
AcDbSymbolTableRecord
100
AcDbLinetypeTableRecord
  2
ByBlock
 70
     0
  3

 72
    65
 73
     0
 40
0.0
  0
LTYPE
  5
15
330
5
100
AcDbSymbolTableRecord
100
AcDbLinetypeTableRecord
  2
ByLayer
 70
     0
  3

 72
    65
 73
     0
 40
0.0
  0
LTYPE
  5
16
330
5
100
AcDbSymbolTableRecord
100
AcDbLinetypeTableRecord
  2
Continuous
 70
     0
  3
Solid line
 72
    65
 73
     0
 40
0.0
  0
LTYPE
  5
6E
330
5
100
AcDbSymbolTableRecord
100
AcDbLinetypeTableRecord
  2
HIDDEN
 70
     0
  3
Hidden __ __ __ __ __ __ __ __ __ __ __ __ __ __
 72
    65
 73
     2
 40
1.905
 49
1.27
 74
     0
 49
-0.635
 74
     0
  0
LTYPE
  5
6F
330
5
100
AcDbSymbolTableRecord
100
AcDbLinetypeTableRecord
  2
PHANTOM
 70
     0
  3
Phantom ______  __  __  ______  __  __  ______
 72
    65
 73
     6
 40
12.7
 49
6.35
 74
     0
 49
-1.27
 74
     0
 49
1.27
 74
     0
 49
-1.27
 74
     0
 49
1.27
 74
     0
 49
-1.27
 74
     0
  0
LTYPE
  5
70
330
5
100
AcDbSymbolTableRecord
100
AcDbLinetypeTableRecord
  2
CENTER
 70
     0
  3
Center ____ _ ____ _ ____ _ ____ _ ____ _ ____
 72
    65
 73
     4
 40
10.16
 49
6.35
 74
     0
 49
-1.27
 74
     0
 49
1.27
 74
     0
 49
-1.27
 74
     0
  0
LTYPE
  5
71
330
5
100
AcDbSymbolTableRecord
100
AcDbLinetypeTableRecord
  2
CENTERX2
 70
     0
  3
Center (2x) ________  __  ________  __  _____
 72
    65
 73
     4
 40
20.32
 49
12.7
 74
     0
 49
-2.54
 74
     0
 49
2.54
 74
     0
 49
-2.54
 74
     0
  0
LTYPE
  5
72
330
5
100
AcDbSymbolTableRecord
100
AcDbLinetypeTableRecord
  2
DOT2
 70
     0
  3
Dot (.5x) ........................................
 72
    65
 73
     2
 40
0.635
 49
0.0
 74
     0
 49
-0.635
 74
     0
  0
ENDTAB
  0
TABLE
  2
LAYER
  5
2
330
0
100
AcDbSymbolTable
 70
    17
  0
LAYER
  5
10
330
2
100
AcDbSymbolTableRecord
100
AcDbLayerTableRecord
  2
0
 70
     0
 62
     7
  6
Continuous
370
    -3
390
F
  0
LAYER
  5
73
330
2
100
AcDbSymbolTableRecord
100
AcDbLayerTableRecord
  2
FORMAT
 70
     0
 62
     7
  6
Continuous
370
    -3
390
F
  0
LAYER
  5
74
330
2
100
AcDbSymbolTableRecord
100
AcDbLayerTableRecord
  2
YARDIMCI_GEOMETRI
 70
     0
 62
    -6
  6
Continuous
290
     0
370
    -3
390
F
  0
LAYER
  5
75
330
2
100
AcDbSymbolTableRecord
100
AcDbLayerTableRecord
  2
SAYFA_CERCEVESI
 70
     0
 62
     7
  6
Continuous
370
    25
390
F
  0
LAYER
  5
76
330
2
100
AcDbSymbolTableRecord
100
AcDbLayerTableRecord
  2
ANTET
 70
     0
 62
     7
  6
Continuous
370
    -3
390
F
  0
LAYER
  5
77
330
2
100
AcDbSymbolTableRecord
100
AcDbLayerTableRecord
  2
OLCU
 70
     0
 62
   150
  6
Continuous
370
    -3
390
F
  0
LAYER
  5
78
330
2
100
AcDbSymbolTableRecord
100
AcDbLayerTableRecord
  2
METIN
 70
     0
 62
    96
  6
Continuous
370
    -3
390
F
  0
LAYER
  5
79
330
2
100
AcDbSymbolTableRecord
100
AcDbLayerTableRecord
  2
BALON
 70
     0
 62
     5
  6
Continuous
370
    -3
390
F
  0
LAYER
  5
7A
330
2
100
AcDbSymbolTableRecord
100
AcDbLayerTableRecord
  2
VURGU
 70
     0
 62
     7
  6
Continuous
370
    -3
390
F
  0
LAYER
  5
7B
330
2
100
AcDbSymbolTableRecord
100
AcDbLayerTableRecord
  2
SILIK
 70
     0
 62
     7
  6
Continuous
370
    -3
390
F
  0
LAYER
  5
7C
330
2
100
AcDbSymbolTableRecord
100
AcDbLayerTableRecord
  2
MODEL
 70
     0
 62
     7
  6
Continuous
370
    -3
390
F
  0
LAYER
  5
7D
330
2
100
AcDbSymbolTableRecord
100
AcDbLayerTableRecord
  2
DETAYLANDıRMA
 70
     0
 62
   190
  6
Continuous
370
    -3
390
F
  0
LAYER
  5
7E
330
2
100
AcDbSymbolTableRecord
100
AcDbLayerTableRecord
  2
TOLERANS
 70
     0
 62
   230
  6
Continuous
370
    -3
390
F
  0
LAYER
  5
7F
330
2
100
AcDbSymbolTableRecord
100
AcDbLayerTableRecord
  2
MERKEZ_CIZGILERI
 70
     0
 62
    30
  6
Continuous
370
    -3
390
F
  0
LAYER
  5
80
330
2
100
AcDbSymbolTableRecord
100
AcDbLayerTableRecord
  2
KESIT-DETAY_CIZGILERI
 70
     0
 62
     7
  6
Continuous
370
    -3
390
F
  0
LAYER
  5
81
330
2
100
AcDbSymbolTableRecord
100
AcDbLayerTableRecord
  2
\U+041E\U+0421\U+0415\U+0412\U+042B\U+0415
 70
     0
 62
     7
  6
Continuous
370
    -3
390
F
  0
LAYER
  5
82
330
2
100
AcDbSymbolTableRecord
100
AcDbLayerTableRecord
  2
\U+0412\U+041E\U+0414\U+042F\U+041D\U+042B\U+0415_\U+0417\U+041D\U+0410\U+041A\U+0418
 70
     0
 62
    11
  6
Continuous
370
    -3
390
F
  0
ENDTAB
  0
TABLE
  2
STYLE
  5
3
330
0
100
AcDbSymbolTable
 70
     1
  0
STYLE
  5
11
330
3
100
AcDbSymbolTableRecord
100
AcDbTextStyleTableRecord
  2
Standard
 70
     0
 40
0.0
 41
1.0
 50
0.0
 71
     0
 42
3.5
  3
txt
  4

  0
ENDTAB
  0
TABLE
  2
VIEW
  5
6
330
0
100
AcDbSymbolTable
 70
     0
  0
ENDTAB
  0
TABLE
  2
UCS
  5
7
330
0
100
AcDbSymbolTable
 70
     0
  0
ENDTAB
  0
TABLE
  2
APPID
  5
9
330
0
100
AcDbSymbolTable
 70
     1
  0
APPID
  5
12
330
9
100
AcDbSymbolTableRecord
100
AcDbRegAppTableRecord
  2
ACAD
 70
     0
  0
ENDTAB
  0
TABLE
  2
DIMSTYLE
  5
A
330
0
100
AcDbSymbolTable
 70
     1
100
AcDbDimStyleTable
  0
DIMSTYLE
105
27
330
A
100
AcDbSymbolTableRecord
100
AcDbDimStyleTableRecord
  2
ISO-25
 70
     0
 41
2.5
 42
0.625
 43
3.75
 44
1.25
 73
     0
 74
     0
 77
     1
 78
     8
140
2.5
141
2.5
143
0.0393700787
147
0.625
171
     3
172
     1
178
     0
271
     2
272
     2
274
     3
278
    44
283
     0
284
     8
340
11
  0
ENDTAB
  0
TABLE
  2
BLOCK_RECORD
  5
1
330
0
100
AcDbSymbolTable
 70
     5
  0
BLOCK_RECORD
  5
1F
330
1
100
AcDbSymbolTableRecord
100
AcDbBlockTableRecord
  2
*Model_Space
340
22
  0
BLOCK_RECORD
  5
1B
330
1
100
AcDbSymbolTableRecord
100
AcDbBlockTableRecord
  2
*Paper_Space
340
1E
  0
BLOCK_RECORD
  5
23
330
1
100
AcDbSymbolTableRecord
100
AcDbBlockTableRecord
  2
*Paper_Space0
340
26
  0
BLOCK_RECORD
  5
A5
330
1
100
AcDbSymbolTableRecord
100
AcDbBlockTableRecord
  2
SW_CENTERMARKSYMBOL_0
340
0
102
{BLKREFS
331
B0
102
}
  0
BLOCK_RECORD
  5
C1
330
1
100
AcDbSymbolTableRecord
100
AcDbBlockTableRecord
  2
SW_CENTERMARKSYMBOL_1
340
0
102
{BLKREFS
331
CC
102
}
  0
BLOCK_RECORD
  5
DE
330
1
100
AcDbSymbolTableRecord
100
AcDbBlockTableRecord
  2
SW_CENTERMARKSYMBOL_2
340
0
102
{BLKREFS
331
E9
102
}
  0
BLOCK_RECORD
  5
F9
330
1
100
AcDbSymbolTableRecord
100
AcDbBlockTableRecord
  2
SW_CENTERMARKSYMBOL_3
340
0
102
{BLKREFS
331
104
102
}
  0
ENDTAB
  0
ENDSEC
  0
SECTION
  2
BLOCKS
  0
BLOCK
  5
20
330
1F
100
AcDbEntity
  8
0
100
AcDbBlockBegin
  2
*Model_Space
 70
     0
 10
0.0
 20
0.0
 30
0.0
  3
*Model_Space
  1

  0
ENDBLK
  5
21
330
1F
100
AcDbEntity
  8
0
100
AcDbBlockEnd
  0
BLOCK
  5
1C
330
1B
100
AcDbEntity
 67
     1
  8
0
100
AcDbBlockBegin
  2
*Paper_Space
 70
     0
 10
0.0
 20
0.0
 30
0.0
  3
*Paper_Space
  1

  0
ENDBLK
  5
1D
330
1B
100
AcDbEntity
 67
     1
  8
0
100
AcDbBlockEnd
  0
BLOCK
  5
24
330
23
100
AcDbEntity
  8
0
100
AcDbBlockBegin
  2
*Paper_Space0
 70
     0
 10
0.0
 20
0.0
 30
0.0
  3
*Paper_Space0
  1

  0
ENDBLK
  5
25
330
23
100
AcDbEntity
  8
0
100
AcDbBlockEnd
  0
BLOCK
  5
A6
330
A5
100
AcDbEntity
  8
0
100
AcDbBlockBegin
  2
SW_CENTERMARKSYMBOL_0
 70
     0
 10
0.0
 20
0.0
 30
0.0
  3
SW_CENTERMARKSYMBOL_0
  1

  0
LINE
  5
A8
330
A5
100
AcDbEntity
  8
FORMAT
 62
     0
100
AcDbLine
 10
0.0
 20
0.0
 30
0.0
 11
0.0
 21
2.5
 31
0.0
  0
LINE
  5
A9
330
A5
100
AcDbEntity
  8
FORMAT
 62
     0
100
AcDbLine
 10
0.0
 20
0.0
 30
0.0
 11
-2.5
 21
0.0
 31
0.0
  0
LINE
  5
AA
330
A5
100
AcDbEntity
  8
FORMAT
 62
     0
100
AcDbLine
 10
0.0
 20
0.0
 30
0.0
 11
0.0
 21
-2.5
 31
0.0
  0
LINE
  5
AB
330
A5
100
AcDbEntity
  8
FORMAT
 62
     0
100
AcDbLine
 10
0.0
 20
0.0
 30
0.0
 11
2.5
 21
0.0
 31
0.0
  0
LINE
  5
AC
330
A5
100
AcDbEntity
  8
FORMAT
 62
     0
100
AcDbLine
 10
0.0
 20
5.0
 30
0.0
 11
0.0
 21
34.0
 31
0.0
  0
LINE
  5
AD
330
A5
100
AcDbEntity
  8
FORMAT
 62
     0
100
AcDbLine
 10
-5.0
 20
0.0
 30
0.0
 11
-34.0
 21
0.0
 31
0.0
  0
LINE
  5
AE
330
A5
100
AcDbEntity
  8
FORMAT
 62
     0
100
AcDbLine
 10
0.0
 20
-5.0
 30
0.0
 11
0.0
 21
-34.0
 31
0.0
  0
LINE
  5
AF
330
A5
100
AcDbEntity
  8
FORMAT
 62
     0
100
AcDbLine
 10
5.0
 20
0.0
 30
0.0
 11
34.0
 21
0.0
 31
0.0
  0
ENDBLK
  5
A7
330
A5
100
AcDbEntity
  8
0
100
AcDbBlockEnd
  0
BLOCK
  5
C2
330
C1
100
AcDbEntity
  8
0
100
AcDbBlockBegin
  2
SW_CENTERMARKSYMBOL_1
 70
     0
 10
0.0
 20
0.0
 30
0.0
  3
SW_CENTERMARKSYMBOL_1
  1

  0
LINE
  5
C4
330
C1
100
AcDbEntity
  8
FORMAT
 62
     0
100
AcDbLine
 10
0.0
 20
0.0
 30
0.0
 11
0.0
 21
2.5
 31
0.0
  0
LINE
  5
C5
330
C1
100
AcDbEntity
  8
FORMAT
 62
     0
100
AcDbLine
 10
0.0
 20
0.0
 30
0.0
 11
-2.5
 21
0.0
 31
0.0
  0
LINE
  5
C6
330
C1
100
AcDbEntity
  8
FORMAT
 62
     0
100
AcDbLine
 10
0.0
 20
0.0
 30
0.0
 11
0.0
 21
-2.5
 31
0.0
  0
LINE
  5
C7
330
C1
100
AcDbEntity
  8
FORMAT
 62
     0
100
AcDbLine
 10
0.0
 20
0.0
 30
0.0
 11
2.5
 21
0.0
 31
0.0
  0
LINE
  5
C8
330
C1
100
AcDbEntity
  8
FORMAT
 62
     0
100
AcDbLine
 10
0.0
 20
5.0
 30
0.0
 11
0.0
 21
34.0
 31
0.0
  0
LINE
  5
C9
330
C1
100
AcDbEntity
  8
FORMAT
 62
     0
100
AcDbLine
 10
-5.0
 20
0.0
 30
0.0
 11
-34.0
 21
0.0
 31
0.0
  0
LINE
  5
CA
330
C1
100
AcDbEntity
  8
FORMAT
 62
     0
100
AcDbLine
 10
0.0
 20
-5.0
 30
0.0
 11
0.0
 21
-34.0
 31
0.0
  0
LINE
  5
CB
330
C1
100
AcDbEntity
  8
FORMAT
 62
     0
100
AcDbLine
 10
5.0
 20
0.0
 30
0.0
 11
34.0
 21
0.0
 31
0.0
  0
ENDBLK
  5
C3
330
C1
100
AcDbEntity
  8
0
100
AcDbBlockEnd
  0
BLOCK
  5
DF
330
DE
100
AcDbEntity
  8
0
100
AcDbBlockBegin
  2
SW_CENTERMARKSYMBOL_2
 70
     0
 10
0.0
 20
0.0
 30
0.0
  3
SW_CENTERMARKSYMBOL_2
  1

  0
LINE
  5
E1
330
DE
100
AcDbEntity
  8
FORMAT
 62
     0
100
AcDbLine
 10
0.0
 20
0.0
 30
0.0
 11
0.0
 21
2.5
 31
0.0
  0
LINE
  5
E2
330
DE
100
AcDbEntity
  8
FORMAT
 62
     0
100
AcDbLine
 10
0.0
 20
0.0
 30
0.0
 11
-2.5
 21
0.0
 31
0.0
  0
LINE
  5
E3
330
DE
100
AcDbEntity
  8
FORMAT
 62
     0
100
AcDbLine
 10
0.0
 20
0.0
 30
0.0
 11
0.0
 21
-2.5
 31
0.0
  0
LINE
  5
E4
330
DE
100
AcDbEntity
  8
FORMAT
 62
     0
100
AcDbLine
 10
0.0
 20
0.0
 30
0.0
 11
2.5
 21
0.0
 31
0.0
  0
LINE
  5
E5
330
DE
100
AcDbEntity
  8
FORMAT
 62
     0
100
AcDbLine
 10
0.0
 20
5.0
 30
0.0
 11
0.0
 21
34.0
 31
0.0
  0
LINE
  5
E6
330
DE
100
AcDbEntity
  8
FORMAT
 62
     0
100
AcDbLine
 10
-5.0
 20
0.0
 30
0.0
 11
-34.0
 21
0.0
 31
0.0
  0
LINE
  5
E7
330
DE
100
AcDbEntity
  8
FORMAT
 62
     0
100
AcDbLine
 10
0.0
 20
-5.0
 30
0.0
 11
0.0
 21
-34.0
 31
0.0
  0
LINE
  5
E8
330
DE
100
AcDbEntity
  8
FORMAT
 62
     0
100
AcDbLine
 10
5.0
 20
0.0
 30
0.0
 11
34.0
 21
0.0
 31
0.0
  0
ENDBLK
  5
E0
330
DE
100
AcDbEntity
  8
0
100
AcDbBlockEnd
  0
BLOCK
  5
FA
330
F9
100
AcDbEntity
  8
0
100
AcDbBlockBegin
  2
SW_CENTERMARKSYMBOL_3
 70
     0
 10
0.0
 20
0.0
 30
0.0
  3
SW_CENTERMARKSYMBOL_3
  1

  0
LINE
  5
FC
330
F9
100
AcDbEntity
  8
FORMAT
 62
     0
100
AcDbLine
 10
0.0
 20
0.0
 30
0.0
 11
0.0
 21
2.5
 31
0.0
  0
LINE
  5
FD
330
F9
100
AcDbEntity
  8
FORMAT
 62
     0
100
AcDbLine
 10
0.0
 20
0.0
 30
0.0
 11
-2.5
 21
0.0
 31
0.0
  0
LINE
  5
FE
330
F9
100
AcDbEntity
  8
FORMAT
 62
     0
100
AcDbLine
 10
0.0
 20
0.0
 30
0.0
 11
0.0
 21
-2.5
 31
0.0
  0
LINE
  5
FF
330
F9
100
AcDbEntity
  8
FORMAT
 62
     0
100
AcDbLine
 10
0.0
 20
0.0
 30
0.0
 11
2.5
 21
0.0
 31
0.0
  0
LINE
  5
100
330
F9
100
AcDbEntity
  8
FORMAT
 62
     0
100
AcDbLine
 10
0.0
 20
5.0
 30
0.0
 11
0.0
 21
34.0
 31
0.0
  0
LINE
  5
101
330
F9
100
AcDbEntity
  8
FORMAT
 62
     0
100
AcDbLine
 10
-5.0
 20
0.0
 30
0.0
 11
-34.0
 21
0.0
 31
0.0
  0
LINE
  5
102
330
F9
100
AcDbEntity
  8
FORMAT
 62
     0
100
AcDbLine
 10
0.0
 20
-5.0
 30
0.0
 11
0.0
 21
-34.0
 31
0.0
  0
LINE
  5
103
330
F9
100
AcDbEntity
  8
FORMAT
 62
     0
100
AcDbLine
 10
5.0
 20
0.0
 30
0.0
 11
34.0
 21
0.0
 31
0.0
  0
ENDBLK
  5
FB
330
F9
100
AcDbEntity
  8
0
100
AcDbBlockEnd
  0
ENDSEC
  0
SECTION
  2
ENTITIES
  0
LINE
  5
83
330
1F
100
AcDbEntity
  8
0
  6
Continuous
 62
     7
370
    25
100
AcDbLine
 10
86.6798773871
 20
81.3944959748
 30
0.0
 11
86.6798773871
 21
44.3944959748
 31
0.0
  0
LINE
  5
84
330
1F
100
AcDbEntity
  8
0
  6
Continuous
 62
     7
370
    25
100
AcDbLine
 10
149.6798773871
 20
44.3944959748
 30
0.0
 11
149.6798773871
 21
81.3944959748
 31
0.0
  0
ARC
  5
85
330
1F
100
AcDbEntity
  8
0
  6
Continuous
 62
     7
370
    25
100
AcDbCircle
 10
153.1798773871
 20
81.3944959748
 30
0.0
 40
3.500000000000014
100
AcDbArc
 50
90.0
 51
180.0
  0
ARC
  5
86
330
1F
100
AcDbEntity
  8
0
  6
Continuous
 62
     7
370
    25
100
AcDbCircle
 10
153.1798773871
 20
81.3944959748
 30
0.0
 40
66.50000000000001
100
AcDbArc
 50
90.0
 51
180.0
  0
LINE
  5
87
330
1F
100
AcDbEntity
  8
0
  6
Continuous
 62
     7
370
    25
100
AcDbLine
 10
190.1798773871
 20
147.8944959748
 30
0.0
 11
153.1798773871
 21
147.8944959748
 31
0.0
  0
LINE
  5
88
330
1F
100
AcDbEntity
  8
0
  6
Continuous
 62
     7
370
    25
100
AcDbLine
 10
153.1798773871
 20
84.8944959748
 30
0.0
 11
190.1798773871
 21
84.8944959748
 31
0.0
  0
CIRCLE
  5
89
330
1F
100
AcDbEntity
  8
0
  6
Continuous
 62
     7
370
    25
100
AcDbCircle
 10
118.1798773871
 20
54.3944959748
 30
0.0
 40
5.0
  0
CIRCLE
  5
8A
330
1F
100
AcDbEntity
  8
0
  6
Continuous
 62
     7
370
    25
100
AcDbCircle
 10
118.1798773871
 20
54.3944959748
 30
0.0
 40
7.0
  0
CIRCLE
  5
8B
330
1F
100
AcDbEntity
  8
0
  6
Continuous
 62
     7
370
    25
100
AcDbCircle
 10
180.1798773871
 20
116.3944959748
 30
0.0
 40
7.000000000000028
  0
CIRCLE
  5
8C
330
1F
100
AcDbEntity
  8
0
  6
Continuous
 62
     7
370
    25
100
AcDbCircle
 10
180.1798773871
 20
116.3944959748
 30
0.0
 40
5.0
  0
LINE
  5
8D
330
1F
100
AcDbEntity
  8
0
  6
Continuous
 62
     7
370
    25
100
AcDbLine
 10
118.1798773871
 20
44.3944959748
 30
0.0
 11
149.6798773871
 21
44.3944959748
 31
0.0
  0
LINE
  5
8E
330
1F
100
AcDbEntity
  8
0
  6
Continuous
 62
     7
370
    25
100
AcDbLine
 10
86.6798773871
 20
44.3944959748
 30
0.0
 11
118.1798773871
 21
44.3944959748
 31
0.0
  0
LINE
  5
8F
330
1F
100
AcDbEntity
  8
0
  6
Continuous
 62
     7
370
    25
100
AcDbLine
 10
190.1798773871
 20
116.3944959748
 30
0.0
 11
190.1798773871
 21
84.8944959748
 31
0.0
  0
LINE
  5
90
330
1F
100
AcDbEntity
  8
0
  6
Continuous
 62
     7
370
    25
100
AcDbLine
 10
190.1798773871
 20
147.8944959748
 30
0.0
 11
190.1798773871
 21
116.3944959748
 31
0.0
  0
LINE
  5
91
330
1F
100
AcDbEntity
  8
0
  6
Continuous
 62
     1
370
    25
100
AcDbLine
 10
118.1798773871
 20
81.3944959748
 30
0.0
 11
149.6798773871
 21
81.3944959748
 31
0.0
  0
LINE
  5
92
330
1F
100
AcDbEntity
  8
0
  6
Continuous
 62
     1
370
    25
100
AcDbLine
 10
86.6798773871
 20
81.3944959748
 30
0.0
 11
118.1798773871
 21
81.3944959748
 31
0.0
  0
LINE
  5
93
330
1F
100
AcDbEntity
  8
0
  6
Continuous
 62
     1
370
    25
100
AcDbLine
 10
153.1798773871
 20
116.3944959748
 30
0.0
 11
153.1798773871
 21
84.8944959748
 31
0.0
  0
LINE
  5
94
330
1F
100
AcDbEntity
  8
0
  6
Continuous
 62
     1
370
    25
100
AcDbLine
 10
153.1798773871
 20
147.8944959748
 30
0.0
 11
153.1798773871
 21
116.3944959748
 31
0.0
  0
LINE
  5
95
330
1F
100
AcDbEntity
  8
0
  6
Continuous
 62
     7
370
    25
100
AcDbLine
 10
-72.2334870699
 20
123.3944959748
 30
0.0
 11
-88.0180470323
 21
123.3944959748
 31
0.0
  0
LINE
  5
96
330
1F
100
AcDbEntity
  8
0
  6
Continuous
 62
     7
370
    25
100
AcDbLine
 10
-88.0180470323
 20
109.3944959748
 30
0.0
 11
-72.2359022659
 21
109.3944959748
 31
0.0
  0
LINE
  5
97
330
1F
100
AcDbEntity
  8
0
  6
Continuous
 62
     7
370
    25
100
AcDbLine
 10
-73.0180470323
 20
109.3944959748
 30
0.0
 11
-73.0180470323
 21
81.3944959748
 31
0.0
  0
LINE
  5
98
330
1F
100
AcDbEntity
  8
0
  6
Continuous
 62
     7
370
    25
100
AcDbLine
 10
-10.0180470323
 20
81.3944959748
 30
0.0
 11
-10.0180470323
 21
116.3944959748
 31
0.0
  0
LINE
  5
99
330
1F
100
AcDbEntity
  8
0
  6
Continuous
 62
     7
370
    25
100
AcDbLine
 10
-73.0180470323
 20
47.3944959748
 30
0.0
 11
-73.0180470323
 21
44.3944959748
 31
0.0
  0
LINE
  5
9A
330
1F
100
AcDbEntity
  8
0
  6
Continuous
 62
     7
370
    25
100
AcDbLine
 10
-73.0180470323
 20
81.3944959748
 30
0.0
 11
-73.0180470323
 21
61.3786673968
 31
0.0
  0
LINE
  5
9B
330
1F
100
AcDbEntity
  8
0
  6
Continuous
 62
     7
370
    25
100
AcDbLine
 10
-10.0180470323
 20
44.3944959748
 30
0.0
 11
-10.0180470323
 21
81.3944959748
 31
0.0
  0
LINE
  5
9C
330
1F
100
AcDbEntity
  8
0
  6
Continuous
 62
     7
370
    25
100
AcDbLine
 10
-73.0145481852
 20
61.3944959748
 30
0.0
 11
-88.0180470323
 21
61.3944959748
 31
0.0
  0
LINE
  5
9D
330
1F
100
AcDbEntity
  8
0
  6
Continuous
 62
     7
370
    25
100
AcDbLine
 10
-88.0180470323
 20
47.3944959748
 30
0.0
 11
-73.0180470323
 21
47.3944959748
 31
0.0
  0
CIRCLE
  5
9E
330
1F
100
AcDbEntity
  8
0
  6
Continuous
 62
     7
370
    25
100
AcDbCircle
 10
-41.5180470323
 20
116.3944959748
 30
0.0
 40
31.5
  0
CIRCLE
  5
9F
330
1F
100
AcDbEntity
  8
0
  6
Continuous
 62
     7
370
    25
100
AcDbCircle
 10
-41.5180470323
 20
116.3944959748
 30
0.0
 40
25.00000000000001
  0
LINE
  5
A0
330
1F
100
AcDbEntity
  8
0
  6
Continuous
 62
     7
370
    25
100
AcDbLine
 10
-88.0180470323
 20
123.3944959748
 30
0.0
 11
-88.0180470323
 21
109.3944959748
 31
0.0
  0
SPLINE
  5
A1
330
1F
100
AcDbEntity
  8
0
  6
Continuous
 62
     7
370
    25
100
AcDbSpline
210
0.0
220
0.0
230
1.0
 70
     8
 71
     3
 72
    26
 73
    22
 74
     0
 42
0.00000001
 43
0.00000001
 40
0.0
 40
0.0
 40
0.0
 40
0.0
 40
0.052040379595747
 40
0.1056122581667508
 40
0.1576464786282653
 40
0.2111484791447094
 40
0.2639526629290123
 40
0.3182524742866621
 40
0.3716187396849565
 40
0.4265804043693097
 40
0.4790782789933613
 40
0.5331577578616727
 40
0.5847040706350184
 40
0.6377237256533608
 40
0.6897183508665155
 40
0.7431566832245387
 40
0.796289478812733
 40
0.8509539004637248
 40
0.9041673515055121
 40
0.9589869047872286
 40
1.0
 40
1.0
 40
1.0
 40
1.0
 10
-73.01804703230381
 20
47.39449597477514
 30
0.0
 10
-73.01397775330271
 20
47.41269301524799
 30
0.0
 10
-73.00571944028204
 20
47.44962261782234
 30
0.0
 10
-72.9409992782363
 20
47.74631344317151
 30
0.0
 10
-72.84451117785851
 20
48.21445722251904
 30
0.0
 10
-72.72382167720217
 20
48.85215513218406
 30
0.0
 10
-72.590586801488
 20
49.65137325902457
 30
0.0
 10
-72.46066472508386
 20
50.58371865110933
 30
0.0
 10
-72.34731704526502
 20
51.6388634426758
 30
0.0
 10
-72.26641600649043
 20
52.76411836526177
 30
0.0
 10
-72.22621136452423
 20
53.94230978747642
 30
0.0
 10
-72.2313953196585
 20
55.10948602112784
 30
0.0
 10
-72.28023433516287
 20
56.25880964342954
 30
0.0
 10
-72.36553775173587
 20
57.34111837533342
 30
0.0
 10
-72.47965323787713
 20
58.35346856848725
 30
0.0
 10
-72.60932448709964
 20
59.25757299331664
 30
0.0
 10
-72.74239760866732
 20
60.04002760915102
 30
0.0
 10
-72.862447786953
 20
60.66432961941372
 30
0.0
 10
-72.95535432739125
 20
61.10974639452679
 30
0.0
 10
-73.01077774219591
 20
61.36192138520857
 30
0.0
 10
-73.01341298626888
 20
61.37364856504716
 30
0.0
 10
-73.01454078058292
 20
61.37866739684252
 30
0.0
  0
LINE
  5
A2
330
1F
100
AcDbEntity
  8
0
  6
Continuous
 62
     7
370
    25
100
AcDbLine
 10
-73.0180470323
 20
44.3944959748
 30
0.0
 11
-10.0180470323
 21
44.3944959748
 31
0.0
  0
LINE
  5
A3
330
1F
100
AcDbEntity
  8
0
  6
Continuous
 62
     7
370
    25
100
AcDbLine
 10
-88.0180470323
 20
61.3944959748
 30
0.0
 11
-88.0180470323
 21
47.3944959748
 31
0.0
  0
LINE
  5
A4
330
1F
100
AcDbEntity
  8
0
  6
Continuous
 62
     1
370
    25
100
AcDbLine
 10
-73.0180470323
 20
81.3944959748
 30
0.0
 11
-10.0180470323
 21
81.3944959748
 31
0.0
  0
INSERT
  5
B0
330
1F
100
AcDbEntity
  8
FORMAT
 62
     7
100
AcDbBlockReference
  2
SW_CENTERMARKSYMBOL_0
 10
-41.5180470323
 20
116.3944959748
 30
0.0
  0
LINE
  5
B1
330
1F
100
AcDbEntity
  8
0
  6
Continuous
 62
     7
370
    25
100
AcDbLine
 10
125.1798773871
 20
272.8882889812
 30
0.0
 11
125.1798773871
 21
288.6704337476
 31
0.0
  0
LINE
  5
B2
330
1F
100
AcDbEntity
  8
0
  6
Continuous
 62
     7
370
    25
100
AcDbLine
 10
111.1798773871
 20
288.6704337476
 30
0.0
 11
111.1798773871
 21
272.8858737852
 31
0.0
  0
LINE
  5
B3
330
1F
100
AcDbEntity
  8
0
  6
Continuous
 62
     7
370
    25
100
AcDbLine
 10
153.1798773871
 20
273.6704337476
 30
0.0
 11
125.1798773871
 21
273.6704337476
 31
0.0
  0
LINE
  5
B4
330
1F
100
AcDbEntity
  8
0
  6
Continuous
 62
     7
370
    25
100
AcDbLine
 10
118.1798773871
 20
210.6704337476
 30
0.0
 11
153.1798773871
 21
210.6704337476
 31
0.0
  0
LINE
  5
B5
330
1F
100
AcDbEntity
  8
0
  6
Continuous
 62
     7
370
    25
100
AcDbLine
 10
173.1798773871
 20
273.6704337476
 30
0.0
 11
153.1798773871
 21
273.6704337476
 31
0.0
  0
LINE
  5
B6
330
1F
100
AcDbEntity
  8
0
  6
Continuous
 62
     7
370
    25
100
AcDbLine
 10
190.1798773871
 20
273.6704337476
 30
0.0
 11
187.1640488091
 21
273.6704337476
 31
0.0
  0
LINE
  5
B7
330
1F
100
AcDbEntity
  8
0
  6
Continuous
 62
     7
370
    25
100
AcDbLine
 10
153.1798773871
 20
210.6704337476
 30
0.0
 11
190.1798773871
 21
210.6704337476
 31
0.0
  0
LINE
  5
B8
330
1F
100
AcDbEntity
  8
0
  6
Continuous
 62
     7
370
    25
100
AcDbLine
 10
187.1798773871
 20
273.6669349005
 30
0.0
 11
187.1798773871
 21
288.6704337476
 31
0.0
  0
LINE
  5
B9
330
1F
100
AcDbEntity
  8
0
  6
Continuous
 62
     7
370
    25
100
AcDbLine
 10
173.1798773871
 20
288.6704337476
 30
0.0
 11
173.1798773871
 21
273.6704337476
 31
0.0
  0
CIRCLE
  5
BA
330
1F
100
AcDbEntity
  8
0
  6
Continuous
 62
     7
370
    25
100
AcDbCircle
 10
118.1798773871
 20
242.1704337476
 30
0.0
 40
25.00000000000003
  0
CIRCLE
  5
BB
330
1F
100
AcDbEntity
  8
0
  6
Continuous
 62
     7
370
    25
100
AcDbCircle
 10
118.1798773871
 20
242.1704337476
 30
0.0
 40
31.50000000000003
  0
LINE
  5
BC
330
1F
100
AcDbEntity
  8
0
  6
Continuous
 62
     7
370
    25
100
AcDbLine
 10
125.1798773871
 20
288.6704337476
 30
0.0
 11
111.1798773871
 21
288.6704337476
 31
0.0
  0
SPLINE
  5
BD
330
1F
100
AcDbEntity
  8
0
  6
Continuous
 62
     7
370
    25
100
AcDbSpline
210
0.0
220
0.0
230
1.0
 70
     8
 71
     3
 72
    26
 73
    22
 74
     0
 42
0.00000001
 43
0.00000001
 40
0.0
 40
0.0
 40
0.0
 40
0.0
 40
0.0520403795957467
 40
0.1056122581667508
 40
0.1576464786282653
 40
0.2111484791447097
 40
0.2639526629290116
 40
0.318252474286662
 40
0.3716187396849567
 40
0.4265804043693101
 40
0.4790782789933618
 40
0.5331577578616734
 40
0.5847040706350192
 40
0.637723725653361
 40
0.6897183508665156
 40
0.7431566832245389
 40
0.796289478812734
 40
0.8509539004637255
 40
0.9041673515055134
 40
0.958986904787229
 40
1.0
 40
1.0
 40
1.0
 40
1.0
 10
173.1798773870784
 20
273.6704337475906
 30
0.0
 10
173.1980744275513
 20
273.6663644685895
 30
0.0
 10
173.2350040301256
 20
273.6581061555688
 30
0.0
 10
173.5316948554748
 20
273.593385993523
 30
0.0
 10
173.9998386348223
 20
273.4968978931453
 30
0.0
 10
174.6375365444874
 20
273.3762083924889
 30
0.0
 10
175.4367546713279
 20
273.2429735167747
 30
0.0
 10
176.3691000634126
 20
273.1130514403706
 30
0.0
 10
177.4242448549791
 20
272.9997037605518
 30
0.0
 10
178.5494997775651
 20
272.9188027217772
 30
0.0
 10
179.7276911997797
 20
272.878598079811
 30
0.0
 10
180.8948674334312
 20
272.8837820349453
 30
0.0
 10
182.0441910557328
 20
272.9326210504496
 30
0.0
 10
183.1264997876367
 20
273.0179244670227
 30
0.0
 10
184.1388499807906
 20
273.1320399531639
 30
0.0
 10
185.04295440562
 20
273.2617112023864
 30
0.0
 10
185.8254090214543
 20
273.394784323954
 30
0.0
 10
186.449711031717
 20
273.5148345022398
 30
0.0
 10
186.8951278068301
 20
273.6077410426781
 30
0.0
 10
187.1473027975119
 20
273.6631644574827
 30
0.0
 10
187.1590299773505
 20
273.6657997015556
 30
0.0
 10
187.1640488091458
 20
273.6669274958697
 30
0.0
  0
LINE
  5
BE
330
1F
100
AcDbEntity
  8
0
  6
Continuous
 62
     7
370
    25
100
AcDbLine
 10
190.1798773871
 20
273.6704337476
 30
0.0
 11
190.1798773871
 21
210.6704337476
 31
0.0
  0
LINE
  5
BF
330
1F
100
AcDbEntity
  8
0
  6
Continuous
 62
     7
370
    25
100
AcDbLine
 10
187.1798773871
 20
288.6704337476
 30
0.0
 11
173.1798773871
 21
288.6704337476
 31
0.0
  0
LINE
  5
C0
330
1F
100
AcDbEntity
  8
0
  6
Continuous
 62
     1
370
    25
100
AcDbLine
 10
153.1798773871
 20
273.6704337476
 30
0.0
 11
153.1798773871
 21
210.6704337476
 31
0.0
  0
INSERT
  5
CC
330
1F
100
AcDbEntity
  8
FORMAT
 62
     7
100
AcDbBlockReference
  2
SW_CENTERMARKSYMBOL_1
 10
118.1798773871
 20
242.1704337476
 30
0.0
  0
LINE
  5
CD
330
1F
100
AcDbEntity
  8
0
  6
Continuous
 62
     7
370
    25
100
AcDbLine
 10
256.8776253863
 20
81.3944959748
 30
0.0
 11
256.8776253863
 21
44.3944959748
 31
0.0
  0
LINE
  5
CE
330
1F
100
AcDbEntity
  8
0
  6
Continuous
 62
     7
370
    25
100
AcDbLine
 10
319.8776253863
 20
61.3786673968
 30
0.0
 11
319.8776253863
 21
81.3944959748
 31
0.0
  0
LINE
  5
CF
330
1F
100
AcDbEntity
  8
0
  6
Continuous
 62
     7
370
    25
100
AcDbLine
 10
319.8776253863
 20
44.3944959748
 30
0.0
 11
319.8776253863
 21
47.3944959748
 31
0.0
  0
LINE
  5
D0
330
1F
100
AcDbEntity
  8
0
  6
Continuous
 62
     7
370
    25
100
AcDbLine
 10
319.8776253863
 20
81.3944959748
 30
0.0
 11
319.8776253863
 21
116.3944959748
 31
0.0
  0
LINE
  5
D1
330
1F
100
AcDbEntity
  8
0
  6
Continuous
 62
     7
370
    25
100
AcDbLine
 10
256.8776253863
 20
116.3944959748
 30
0.0
 11
256.8776253863
 21
81.3944959748
 31
0.0
  0
LINE
  5
D2
330
1F
100
AcDbEntity
  8
0
  6
Continuous
 62
     7
370
    25
100
AcDbLine
 10
319.8776253863
 20
47.3944959748
 30
0.0
 11
334.8776253863
 21
47.3944959748
 31
0.0
  0
LINE
  5
D3
330
1F
100
AcDbEntity
  8
0
  6
Continuous
 62
     7
370
    25
100
AcDbLine
 10
334.8776253863
 20
61.3944959748
 30
0.0
 11
319.8741265392
 21
61.3944959748
 31
0.0
  0
LINE
  5
D4
330
1F
100
AcDbEntity
  8
0
  6
Continuous
 62
     7
370
    25
100
AcDbLine
 10
319.8776253863
 20
109.3944959748
 30
0.0
 11
334.8776253863
 21
109.3944959748
 31
0.0
  0
LINE
  5
D5
330
1F
100
AcDbEntity
  8
0
  6
Continuous
 62
     7
370
    25
100
AcDbLine
 10
334.8776253863
 20
123.3944959748
 30
0.0
 11
319.0930654238
 21
123.3944959748
 31
0.0
  0
LINE
  5
D6
330
1F
100
AcDbEntity
  8
0
  6
Continuous
 62
     7
370
    25
100
AcDbLine
 10
256.8776253863
 20
44.3944959748
 30
0.0
 11
319.8776253863
 21
44.3944959748
 31
0.0
  0
SPLINE
  5
D7
330
1F
100
AcDbEntity
  8
0
  6
Continuous
 62
     7
370
    25
100
AcDbSpline
210
0.0
220
0.0
230
1.0
 70
     8
 71
     3
 72
    27
 73
    23
 74
     0
 42
0.00000001
 43
0.00000001
 40
0.0
 40
0.0
 40
0.0
 40
0.0
 40
0.0111169247045283
 40
0.0647913470793743
 40
0.1163638035486777
 40
0.1693914226747404
 40
0.2217329982822649
 40
0.275536418691665
 40
0.3288426873363631
 40
0.3837099355295725
 40
0.4366755623159156
 40
0.4912473222019006
 40
0.5430417605996258
 40
0.5963516320086664
 40
0.6479921666213353
 40
0.701071703217509
 40
0.7537880034748405
 40
0.8079924526789968
 40
0.8613627012829445
 40
0.9163227059809198
 40
0.9577816855304798
 40
0.9999999999999999
 40
0.9999999999999999
 40
0.9999999999999999
 40
0.9999999999999999
 10
319.874119134557
 20
61.37866739684253
 30
0.0
 10
319.875201015311
 20
61.3835520300247
 30
0.0
 10
319.881506402214
 20
61.41202051139638
 30
0.0
 10
319.8507367293373
 20
61.27376848342048
 30
0.0
 10
319.7827698100646
 20
60.95832070734636
 30
0.0
 10
319.6801477487741
 20
60.45333412214604
 30
0.0
 10
319.5558266921111
 20
59.78059385403974
 30
0.0
 10
319.422842076359
 20
58.95713837808455
 30
0.0
 10
319.2943611574922
 20
57.99149028062745
 30
0.0
 10
319.1874916382447
 20
56.92586970785222
 30
0.0
 10
319.1137380159536
 20
55.7771952106517
 30
0.0
 10
319.0832033710024
 20
54.60866046082751
 30
0.0
 10
319.0978570636743
 20
53.43221584146021
 30
0.0
 10
319.1544367905915
 20
52.3043323843152
 30
0.0
 10
319.247208311705
 20
51.22710335519206
 30
0.0
 10
319.3649039722296
 20
50.2411918472818
 30
0.0
 10
319.4971667436755
 20
49.35521075893302
 30
0.0
 10
319.6280155554891
 20
48.60817980128789
 30
0.0
 10
319.7444745437948
 20
48.01417450000811
 30
0.0
 10
319.8239570958697
 20
47.63839168316402
 30
0.0
 10
319.8696754663544
 20
47.43011331922152
 30
0.0
 10
319.8749594297495
 20
47.40644003117598
 30
0.0
 10
319.8776253862778
 20
47.39449597477514
 30
0.0
  0
ARC
  5
D8
330
1F
100
AcDbEntity
  8
0
  6
Continuous
 62
     7
370
    25
100
AcDbCircle
 10
288.3776253863
 20
116.3944959748
 30
0.0
 40
31.50000000000006
100
AcDbArc
 50
0.0
 51
180.0
  0
LINE
  5
D9
330
1F
100
AcDbEntity
  8
0
  6
Continuous
 62
     7
370
    25
100
AcDbLine
 10
334.8776253863
 20
54.3944959748
 30
0.0
 11
334.8776253863
 21
61.3944959748
 31
0.0
  0
LINE
  5
DA
330
1F
100
AcDbEntity
  8
0
  6
Continuous
 62
     7
370
    25
100
AcDbLine
 10
334.8776253863
 20
47.3944959748
 30
0.0
 11
334.8776253863
 21
54.3944959748
 31
0.0
  0
LINE
  5
DB
330
1F
100
AcDbEntity
  8
0
  6
Continuous
 62
     7
370
    25
100
AcDbLine
 10
334.8776253863
 20
116.3944959748
 30
0.0
 11
334.8776253863
 21
123.3944959748
 31
0.0
  0
LINE
  5
DC
330
1F
100
AcDbEntity
  8
0
  6
Continuous
 62
     7
370
    25
100
AcDbLine
 10
334.8776253863
 20
109.3944959748
 30
0.0
 11
334.8776253863
 21
116.3944959748
 31
0.0
  0
LINE
  5
DD
330
1F
100
AcDbEntity
  8
0
  6
Continuous
 62
     1
370
    25
100
AcDbLine
 10
256.8776253863
 20
81.3944959748
 30
0.0
 11
319.8776253863
 21
81.3944959748
 31
0.0
  0
INSERT
  5
E9
330
1F
100
AcDbEntity
  8
FORMAT
 62
     7
100
AcDbBlockReference
  2
SW_CENTERMARKSYMBOL_2
 10
288.3776253863
 20
116.3944959748
 30
0.0
  0
LINE
  5
EA
330
1F
100
AcDbEntity
  8
0
  6
Continuous
 62
     7
370
    25
100
AcDbLine
 10
118.1798773871
 20
-70.3531252511
 30
0.0
 11
153.1798773871
 21
-70.3531252511
 31
0.0
  0
LINE
  5
EB
330
1F
100
AcDbEntity
  8
0
  6
Continuous
 62
     7
370
    25
100
AcDbLine
 10
153.1798773871
 20
-7.3531252511
 30
0.0
 11
118.1798773871
 21
-7.3531252511
 31
0.0
  0
LINE
  5
EC
330
1F
100
AcDbEntity
  8
0
  6
Continuous
 62
     7
370
    25
100
AcDbLine
 10
190.1798773871
 20
-7.3531252511
 30
0.0
 11
153.1798773871
 21
-7.3531252511
 31
0.0
  0
LINE
  5
ED
330
1F
100
AcDbEntity
  8
0
  6
Continuous
 62
     7
370
    25
100
AcDbLine
 10
187.1640488091
 20
-70.3531252511
 30
0.0
 11
190.1798773871
 21
-70.3531252511
 31
0.0
  0
LINE
  5
EE
330
1F
100
AcDbEntity
  8
0
  6
Continuous
 62
     7
370
    25
100
AcDbLine
 10
153.1798773871
 20
-70.3531252511
 30
0.0
 11
173.1798773871
 21
-70.3531252511
 31
0.0
  0
LINE
  5
EF
330
1F
100
AcDbEntity
  8
0
  6
Continuous
 62
     7
370
    25
100
AcDbLine
 10
173.1798773871
 20
-70.3531252511
 30
0.0
 11
173.1798773871
 21
-85.3531252511
 31
0.0
  0
LINE
  5
F0
330
1F
100
AcDbEntity
  8
0
  6
Continuous
 62
     7
370
    25
100
AcDbLine
 10
187.1798773871
 20
-85.3531252511
 30
0.0
 11
187.1798773871
 21
-70.3496264039
 31
0.0
  0
LINE
  5
F1
330
1F
100
AcDbEntity
  8
0
  6
Continuous
 62
     7
370
    25
100
AcDbLine
 10
111.1798773871
 20
-69.5685652886
 30
0.0
 11
111.1798773871
 21
-85.3531252511
 31
0.0
  0
LINE
  5
F2
330
1F
100
AcDbEntity
  8
0
  6
Continuous
 62
     7
370
    25
100
AcDbLine
 10
125.1798773871
 20
-85.3531252511
 30
0.0
 11
125.1798773871
 21
-70.3531252511
 31
0.0
  0
ARC
  5
F3
330
1F
100
AcDbEntity
  8
0
  6
Continuous
 62
     7
370
    25
100
AcDbCircle
 10
118.1798773871
 20
-38.8531252511
 30
0.0
 40
31.5
100
AcDbArc
 50
90.0
 51
270.0
  0
SPLINE
  5
F4
330
1F
100
AcDbEntity
  8
0
  6
Continuous
 62
     7
370
    25
100
AcDbSpline
210
0.0
220
0.0
230
1.0
 70
     8
 71
     3
 72
    27
 73
    23
 74
     0
 42
0.00000001
 43
0.00000001
 40
0.0
 40
0.0
 40
0.0
 40
0.0
 40
0.011116924704529
 40
0.0647913470793744
 40
0.1163638035486773
 40
0.1693914226747405
 40
0.2217329982822657
 40
0.2755364186916655
 40
0.3288426873363632
 40
0.3837099355295724
 40
0.4366755623159154
 40
0.4912473222019001
 40
0.5430417605996255
 40
0.5963516320086661
 40
0.6479921666213351
 40
0.7010717032175089
 40
0.7537880034748408
 40
0.8079924526789964
 40
0.8613627012829441
 40
0.9163227059809198
 40
0.9577816855304802
 40
1.0
 40
1.0
 40
1.0
 40
1.0
 10
187.1640488091458
 20
-70.3496189993382
 30
0.0
 10
187.168933442328
 20
-70.35070088009223
 30
0.0
 10
187.1974019236997
 20
-70.35700626699528
 30
0.0
 10
187.0591498957238
 20
-70.32623659411858
 30
0.0
 10
186.7437021196497
 20
-70.25826967484583
 30
0.0
 10
186.2387155344494
 20
-70.15564761355537
 30
0.0
 10
185.565975266343
 20
-70.03132655689228
 30
0.0
 10
184.7425197903878
 20
-69.89834194114016
 30
0.0
 10
183.7768716929308
 20
-69.76986102227346
 30
0.0
 10
182.7112511201555
 20
-69.66299150302589
 30
0.0
 10
181.562576622955
 20
-69.58923788073484
 30
0.0
 10
180.3940418731308
 20
-69.55870323578358
 30
0.0
 10
179.2175972537635
 20
-69.57335692845545
 30
0.0
 10
178.0897137966185
 20
-69.6299366553727
 30
0.0
 10
177.0124847674954
 20
-69.72270817648631
 30
0.0
 10
176.0265732595851
 20
-69.84040383701084
 30
0.0
 10
175.1405921712363
 20
-69.97266660845668
 30
0.0
 10
174.3935612135912
 20
-70.10351542027033
 30
0.0
 10
173.7995559123114
 20
-70.219974408576
 30
0.0
 10
173.4237730954673
 20
-70.29945696065097
 30
0.0
 10
173.2154947315248
 20
-70.34517533113561
 30
0.0
 10
173.1918214434793
 20
-70.35045929453076
 30
0.0
 10
173.1798773870784
 20
-70.35312525105908
 30
0.0
  0
LINE
  5
F5
330
1F
100
AcDbEntity
  8
0
  6
Continuous
 62
     7
370
    25
100
AcDbLine
 10
190.1798773871
 20
-7.3531252511
 30
0.0
 11
190.1798773871
 21
-70.3531252511
 31
0.0
  0
LINE
  5
F6
330
1F
100
AcDbEntity
  8
0
  6
Continuous
 62
     7
370
    25
100
AcDbLine
 10
173.1798773871
 20
-85.3531252511
 30
0.0
 11
187.1798773871
 21
-85.3531252511
 31
0.0
  0
LINE
  5
F7
330
1F
100
AcDbEntity
  8
0
  6
Continuous
 62
     7
370
    25
100
AcDbLine
 10
111.1798773871
 20
-85.3531252511
 30
0.0
 11
125.1798773871
 21
-85.3531252511
 31
0.0
  0
LINE
  5
F8
330
1F
100
AcDbEntity
  8
0
  6
Continuous
 62
     1
370
    25
100
AcDbLine
 10
153.1798773871
 20
-7.3531252511
 30
0.0
 11
153.1798773871
 21
-70.3531252511
 31
0.0
  0
INSERT
  5
104
330
1F
100
AcDbEntity
  8
FORMAT
 62
     7
100
AcDbBlockReference
  2
SW_CENTERMARKSYMBOL_3
 10
118.1798773871
 20
-38.8531252511
 30
0.0
  0
LINE
  5
105
330
1F
100
AcDbEntity
  8
0
  6
Continuous
 62
     7
370
    25
100
AcDbLine
 10
310.7722521852
 20
11.9061181542
 30
0.0
 11
294.9479132001
 21
2.7709217062
 31
0.0
  0
LINE
  5
106
330
1F
100
AcDbEntity
  8
0
  6
Continuous
 62
     7
370
    25
100
AcDbLine
 10
316.1067413593
 20
-57.7585102445
 30
0.0
 11
342.2696922632
 21
-42.6549601758
 31
0.0
  0
LINE
  5
107
330
1F
100
AcDbEntity
  8
0
  6
Continuous
 62
     7
370
    25
100
AcDbLine
 10
244.1092839788
 20
-85.2887652703
 30
0.0
 11
244.1092839788
 21
-103.5560514922
 31
0.0
  0
LINE
  5
108
330
1F
100
AcDbEntity
  8
0
  6
Continuous
 62
     7
370
    25
100
AcDbLine
 10
307.1092839788
 20
-103.5560514922
 30
0.0
 11
307.1092839788
 21
-73.3440414524
 31
0.0
  0
LINE
  5
109
330
1F
100
AcDbEntity
  8
0
  6
Continuous
 62
     7
370
    25
100
AcDbLine
 10
300.9525910918
 20
-0.6955050557
 30
0.0
 11
290.0691546514
 21
5.5873690666
 31
0.0
  0
LINE
  5
10A
330
1F
100
AcDbEntity
  8
0
  6
Continuous
 62
     7
370
    25
100
AcDbLine
 10
283.0697235229
 20
-6.5373150067
 30
0.0
 11
293.9532843358
 21
-12.8202609277
 31
0.0
  0
LINE
  5
10B
330
1F
100
AcDbEntity
  8
0
  6
Continuous
 62
     7
370
    25
100
AcDbLine
 10
257.1119920354
 20
-76.6296991999
 30
0.0
 11
246.2285342178
 21
-70.3468127368
 31
0.0
  0
LINE
  5
10C
330
1F
100
AcDbEntity
  8
0
  6
Continuous
 62
     7
370
    25
100
AcDbLine
 10
239.2291030894
 20
-82.4714968101
 30
0.0
 11
250.1122629132
 21
-88.7542112451
 31
0.0
  0
SPLINE
  5
10D
330
1F
100
AcDbEntity
  8
0
  6
Continuous
 62
     7
370
    25
100
AcDbSpline
210
0.0
220
0.0
230
1.0
 70
     8
 71
     3
 72
    37
 73
    33
 74
     0
 42
0.00000001
 43
0.00000001
 40
0.0
 40
0.0
 40
0.0
 40
0.0
 40
0.0206768084775838
 40
0.055209296288912
 40
0.0889690415976999
 40
0.1223425519532745
 40
0.1555324435534388
 40
0.1887107073757499
 40
0.2220036504496932
 40
0.2554895106612491
 40
0.2892483226928402
 40
0.3233269130680704
 40
0.3577416676205181
 40
0.3924819409386205
 40
0.4275141809928081
 40
0.4627865484256336
 40
0.4982338308464667
 40
0.5337825071727694
 40
0.569344022890322
 40
0.6048299772404194
 40
0.6401754179159882
 40
0.6753299620514155
 40
0.7102631225097255
 40
0.7449695074335084
 40
0.7794736304223747
 40
0.8138340054436974
 40
0.8481461754443362
 40
0.882544377165145
 40
0.9171539463359106
 40
0.9521618401923774
 40
0.9877972913828482
 40
0.9999999999999999
 40
0.9999999999999999
 40
0.9999999999999999
 40
0.9999999999999999
 10
307.1092839787722
 20
-73.34404145242266
 30
0.0
 10
307.1093721009673
 20
-73.32850745027453
 30
0.0
 10
307.1096073966793
 20
-73.28702999846766
 30
0.0
 10
307.1152095796649
 20
-73.14077238436012
 30
0.0
 10
307.1360229431768
 20
-72.88360541511067
 30
0.0
 10
307.1777148372933
 20
-72.53767574000189
 30
0.0
 10
307.2461308369342
 20
-72.1085788685697
 30
0.0
 10
307.3464824320162
 20
-71.60081175673177
 30
0.0
 10
307.4832113389207
 20
-71.02036441180235
 30
0.0
 10
307.6599188004737
 20
-70.37399824703378
 30
0.0
 10
307.8792944583262
 20
-69.66936083926728
 30
0.0
 10
308.143093165192
 20
-68.91478092342533
 30
0.0
 10
308.4519777683387
 20
-68.11947574528625
 30
0.0
 10
308.8054304262881
 20
-67.29345705652051
 30
0.0
 10
309.2016923163618
 20
-66.4473795199971
 30
0.0
 10
309.6377394115466
 20
-65.59233682856322
 30
0.0
 10
310.1092972638631
 20
-64.73962240152173
 30
0.0
 10
310.610839171066
 20
-63.90056215413836
 30
0.0
 10
311.1356539450657
 20
-63.08624500081343
 30
0.0
 10
311.6760527792331
 20
-62.30710037742818
 30
0.0
 10
312.2236260280876
 20
-61.57253506945163
 30
0.0
 10
312.7694695261681
 20
-60.89070505819164
 30
0.0
 10
313.3043212117767
 20
-60.26844219441093
 30
0.0
 10
313.8187700709055
 20
-59.71111835686293
 30
0.0
 10
314.3034564534001
 20
-59.22256228551304
 30
0.0
 10
314.7492317773218
 20
-58.80504422313726
 30
0.0
 10
315.147311404957
 20
-58.45929671427031
 30
0.0
 10
315.4890549333385
 20
-58.18480872317156
 30
0.0
 10
315.766640441548
 20
-57.97944886759448
 30
0.0
 10
315.9714403458535
 20
-57.84057725801803
 30
0.0
 10
316.0712144528016
 20
-57.77919993082586
 30
0.0
 10
316.0995208693485
 20
-57.76271521722904
 30
0.0
 10
316.1067413593194
 20
-57.75851024451543
 30
0.0
  0
SPLINE
  5
10E
330
1F
100
AcDbEntity
  8
0
  6
Continuous
 62
     7
370
    25
100
AcDbSpline
210
0.0
220
0.0
230
1.0
 70
     8
 71
     3
 72
    38
 73
    34
 74
     0
 42
0.00000001
 43
0.00000001
 40
0.0
 40
0.0
 40
0.0
 40
0.0
 40
0.0116969475489014
 40
0.0449217454018307
 40
0.0782838767319518
 40
0.1117285769386346
 40
0.1451984165297792
 40
0.1786499345741013
 40
0.2120545144225408
 40
0.2453928271925077
 40
0.2786541701979602
 40
0.3118353675530925
 40
0.3449395145559813
 40
0.3779747419447358
 40
0.4109531000815219
 40
0.4438896039155858
 40
0.4768014399477758
 40
0.5097073129905162
 40
0.5426268981945724
 40
0.5755750423960174
 40
0.6085706434884852
 40
0.6416336804425152
 40
0.6747833060458729
 40
0.7080372251151158
 40
0.7414109289745014
 40
0.7749167448876046
 40
0.8085626721269777
 40
0.8423510033794518
 40
0.876276778427757
 40
0.9103261919213832
 40
0.9444751766971597
 40
0.9786879790966698
 40
0.9999999999999999
 40
0.9999999999999999
 40
0.9999999999999999
 40
0.9999999999999999
 10
281.8838436945398
 20
-4.873372165329147
 30
0.0
 10
281.6353957352284
 20
-5.029948277915926
 30
0.0
 10
280.6812394541019
 20
-5.631273729383192
 30
0.0
 10
279.0608041731328
 20
-6.765704965425161
 30
0.0
 10
277.0225098888756
 20
-8.274850445315042
 30
0.0
 10
275.0260251152703
 20
-9.872033256207038
 30
0.0
 10
273.0723781908579
 20
-11.54504313992839
 30
0.0
 10
271.1664099884101
 20
-13.29089767955107
 30
0.0
 10
269.310946125407
 20
-15.10443277612285
 30
0.0
 10
267.5084928418191
 20
-16.9814898425154
 30
0.0
 10
265.7610183584064
 20
-18.91803594900015
 30
0.0
 10
264.0701579634541
 20
-20.91040996191585
 30
0.0
 10
262.4372820487157
 20
-22.9552549699665
 30
0.0
 10
260.8635924837548
 20
-25.04951071362358
 30
0.0
 10
259.3501961303382
 20
-27.19037740547543
 30
0.0
 10
257.8981671415252
 20
-29.37528252982104
 30
0.0
 10
256.5085959787975
 20
-31.60184698053831
 30
0.0
 10
255.182628334544
 20
-33.86785369515046
 30
0.0
 10
253.9215641158174
 20
-36.17109428320197
 30
0.0
 10
252.7268146907763
 20
-38.5094257815917
 30
0.0
 10
251.5999011844
 20
-40.88077843478152
 30
0.0
 10
250.5424213559307
 20
-43.28326063031684
 30
0.0
 10
249.5561243760289
 20
-45.7150337765159
 30
0.0
 10
248.6429449528891
 20
-48.1742338888694
 30
0.0
 10
247.8050220531114
 20
-50.65891368050178
 30
0.0
 10
247.044698536283
 20
-53.16697064006848
 30
0.0
 10
246.3645667456417
 20
-55.69605414009005
 30
0.0
 10
245.7672974672877
 20
-58.24346979881467
 30
0.0
 10
245.2562128390506
 20
-60.80601656334086
 30
0.0
 10
244.8329659227385
 20
-63.38002248531746
 30
0.0
 10
244.5059431734587
 20
-65.96062058524146
 30
0.0
 10
244.289508876814
 20
-68.21864891177748
 30
0.0
 10
244.2240908646614
 20
-69.61255519786263
 30
0.0
 10
244.198981553915
 20
-70.14757643952069
 30
0.0
  0
LWPOLYLINE
  5
10F
330
1F
100
AcDbEntity
  8
0
  6
Continuous
 62
     7
370
    25
100
AcDbPolyline
 90
      105
 70
   128
 43
0.0
 10
304.2471086168
 20
-2.5159932496
 10
304.2877460732
 20
-4.0924502339
 10
304.4095101607
 20
-5.7100739062
 10
304.6119565754
 20
-7.3629617329
 10
304.8943466122
 20
-9.0450825057
 10
305.2556498605
 20
-10.7502983484
 10
305.6945479639
 20
-12.4723871132
 10
306.209439431
 20
-14.2050650849
 10
306.7984454785
 20
-15.9420099096
 10
307.4594168872
 20
-17.676883664
 10
308.1899418442
 20
-19.4033559818
 10
308.9873547431
 20
-21.1151271529
 10
309.8487459108
 20
-22.8059511098
 10
310.7709722242
 20
-24.4696582193
 10
311.7506685796
 20
-26.1001777945
 10
312.7842601712
 20
-27.6915602465
 10
313.8679755354
 20
-29.2379987931
 10
314.9978603123
 20
-30.7338506478
 10
316.1697916749
 20
-32.1736576095
 10
317.3794933728
 20
-33.5521659787
 10
318.6225513357
 20
-34.8643457278
 10
319.8944297799
 20
-36.1054088552
 10
321.1904877588
 20
-37.2708268561
 10
322.5059960974
 20
-38.3563472468
 10
323.8361546485
 20
-39.3580090809
 10
325.1761098078
 20
-40.272157403
 10
326.5209722242
 20
-41.0954565852
 10
327.8658346406
 20
-41.8249024979
 10
329.2057897999
 20
-42.4578334721
 10
330.535948351
 20
-42.9919400114
 10
331.8514566897
 20
-43.4252732189
 10
333.1475146686
 20
-43.7562519086
 10
334.4193931127
 20
-43.9836683754
 10
335.6624510756
 20
-44.106692801
 10
336.8721527735
 20
-44.1248762829
 10
338.0440841361
 20
-44.0381524713
 10
339.1739689131
 20
-43.8468378121
 10
340.2576842772
 20
-43.5516303918
 10
341.2912758688
 20
-43.1536073901
 10
342.2709722242
 20
-42.65422115
 10
343.1931985376
 20
-42.0552938775
 10
344.0545897053
 20
-41.3590109933
 10
344.8520026042
 20
-40.5679131583
 10
345.5825275612
 20
-39.6848870025
 10
346.2434989699
 20
-38.7131545928
 10
346.8325050174
 20
-37.6562616752
 10
347.3473964845
 20
-36.5180647374
 10
347.7862945879
 20
-35.3027169366
 10
348.1475978362
 20
-34.0146529452
 10
348.429987873
 20
-32.6585727688
 10
348.6324342877
 20
-31.2394245972
 10
348.7541983752
 20
-29.7623867479
 10
348.7948358316
 20
-28.232848772
 10
348.7541983752
 20
-26.6563917877
 10
348.6324342877
 20
-25.0387681154
 10
348.429987873
 20
-23.3858802887
 10
348.1475978362
 20
-21.7037595159
 10
347.7862945879
 20
-19.9985436732
 10
347.3473964845
 20
-18.2764549085
 10
346.8325050174
 20
-16.5437769367
 10
346.2434989699
 20
-14.806832112
 10
345.5825275612
 20
-13.0719583576
 10
344.8520026042
 20
-11.3454860398
 10
344.0545897053
 20
-9.6337148687
 10
343.1931985376
 20
-7.9428909118
 10
342.2709722242
 20
-6.2791838024
 10
341.2912758688
 20
-4.6486642271
 10
340.2576842772
 20
-3.0572817751
 10
339.1739689131
 20
-1.5108432285
 10
338.0440841361
 20
-0.0149913738
 10
336.8721527735
 20
1.4248155879
 10
335.6624510756
 20
2.8033239571
 10
334.4193931127
 20
4.1155037061
 10
333.1475146686
 20
5.3565668335
 10
331.8514566897
 20
6.5219848345
 10
330.535948351
 20
7.6075052251
 10
329.2057897999
 20
8.6091670593
 10
327.8658346406
 20
9.5233153814
 10
326.5209722242
 20
10.3466145636
 10
325.1761098078
 20
11.0760604763
 10
323.8361546485
 20
11.7089914505
 10
322.5059960974
 20
12.2430979898
 10
321.1904877588
 20
12.6764311973
 10
319.8944297799
 20
13.007409887
 10
318.6225513357
 20
13.2348263538
 10
317.3794933728
 20
13.3578507794
 10
316.1697916749
 20
13.3760342613
 10
314.9978603123
 20
13.2893104497
 10
313.8679755354
 20
13.0979957905
 10
312.7842601712
 20
12.8027883702
 10
311.7506685796
 20
12.4047653685
 10
310.7709722242
 20
11.9053791283
 10
309.8487459108
 20
11.3064518558
 10
308.9873547431
 20
10.6101689717
 10
308.1899418442
 20
9.8190711367
 10
307.4594168872
 20
8.9360449809
 10
306.7984454785
 20
7.9643125712
 10
306.209439431
 20
6.9074196536
 10
305.6945479639
 20
5.7692227158
 10
305.2556498605
 20
4.553874915
 10
304.8943466122
 20
3.2658109236
 10
304.6119565754
 20
1.9097307472
 10
304.4095101607
 20
0.4905825756
 10
304.2877460732
 20
-0.9864552737
 10
304.2471086168
 20
-2.5159932496
  0
LWPOLYLINE
  5
110
330
1F
100
AcDbEntity
  8
0
  6
Continuous
 62
     7
370
    25
100
AcDbPolyline
 90
       94
 70
   128
 43
0.0
 10
308.8433026945
 20
-5.169319613
 10
308.8836322703
 20
-3.8144897938
 10
309.004436983
 20
-2.5124052893
 10
309.2051656283
 20
-1.2690072125
 10
309.4849023276
 20
-0.0899689037
 10
309.8423707065
 20
1.0193299558
 10
310.2759397187
 20
2.0538278897
 10
310.7836310882
 20
3.0088047213
 10
311.3631283358
 20
3.8799031102
 10
312.0117873485
 20
4.6631484343
 10
312.7266484439
 20
5.3549669248
 10
313.5044498749
 20
5.9522019727
 10
314.3416427119
 20
6.4521285314
 10
315.234407036
 20
6.8524655507
 10
316.1786693684
 20
7.1513863845
 10
317.1701212566
 20
7.3475271258
 10
318.204238933
 20
7.4399928292
 10
319.2763039559
 20
7.428361595
 10
320.3814247385
 20
7.3126864937
 10
321.5145588681
 20
7.0934953245
 10
322.6705361136
 20
6.7717882063
 10
323.8440820159
 20
6.3490330148
 10
325.0298419542
 20
5.8271586852
 10
326.222405578
 20
5.2085464102
 10
327.4163314929
 20
4.4960187757
 10
328.6061720888
 20
3.692826882
 10
329.786498396
 20
2.8026355094
 10
330.9519248562
 20
1.8295063971
 10
332.0971338959
 20
0.7778797098
 10
333.2169001888
 20
-0.3474462209
 10
334.3061144982
 20
-1.541336791
 10
335.359806989
 20
-2.7983445517
 10
336.3731699041
 20
-4.1127340648
 10
337.3415795008
 20
-5.4785080724
 10
338.2606171484
 20
-6.8894348611
 10
339.1260894887
 20
-8.3390766954
 10
339.9340475701
 20
-9.8208191922
 10
340.6808048651
 20
-11.3279015004
 10
341.3629540915
 20
-12.8534471489
 10
341.9773827588
 20
-14.390495423
 10
342.5212873699
 20
-15.9320331239
 10
342.9921862128
 20
-17.4710265685
 10
343.3879306841
 20
-19.0004536829
 10
343.7067150926
 20
-20.5133360419
 10
343.9470848981
 20
-22.0027707103
 10
344.1079433483
 20
-23.4619617392
 10
344.1885564831
 20
-24.8842511748
 10
344.1885564831
 20
-26.2631494365
 10
344.1079433483
 20
-27.5923649279
 10
343.9470848981
 20
-28.8658327434
 10
343.7067150926
 20
-30.0777423417
 10
343.3879306841
 20
-31.222564057
 10
342.9921862128
 20
-32.2950743306
 10
342.5212873699
 20
-33.2903795439
 10
341.9773827588
 20
-34.2039383477
 10
341.3629540915
 20
-35.0315823827
 10
340.6808048651
 20
-35.7695352988
 10
339.9340475701
 20
-36.4144299863
 10
339.1260894887
 20
-36.9633239386
 10
338.2606171484
 20
-37.4137126785
 10
337.3415795008
 20
-37.7635411854
 10
336.3731699041
 20
-38.0112132721
 10
335.359806989
 20
-38.1555988677
 10
334.3061144982
 20
-38.1960391738
 10
333.2169001888
 20
-38.1323496707
 10
332.0971338959
 20
-37.9648209588
 10
330.9519248562
 20
-37.6942174333
 10
329.786498396
 20
-37.321773796
 10
328.6061720888
 20
-36.8491894218
 10
327.4163314929
 20
-36.2786206047
 10
326.222405578
 20
-35.6126707196
 10
325.0298419542
 20
-34.8543783428
 10
323.8440820159
 20
-34.0072033887
 10
322.6705361136
 20
-33.0750113222
 10
321.5145588681
 20
-32.0620555219
 10
320.3814247385
 20
-30.9729578728
 10
319.2763039559
 20
-29.8126876777
 10
318.204238933
 20
-28.5865389834
 10
317.1701212566
 20
-27.3001064251
 10
316.1786693684
 20
-25.9592596995
 10
315.234407036
 20
-24.5701167827
 10
314.3416427119
 20
-23.1390160152
 10
313.5044498749
 20
-21.6724871817
 10
312.7266484439
 20
-20.1772217167
 10
312.0117873485
 20
-18.6600421736
 10
311.3631283358
 20
-17.1278710948
 10
310.7836310882
 20
-15.5876994255
 10
310.2759397187
 20
-14.0465546156
 10
309.8423707065
 20
-12.5114685555
 10
309.4849023276
 20
-10.9894454909
 10
309.2051656283
 20
-9.4874300638
 10
309.004436983
 20
-8.0122756261
 10
308.8836322703
 20
-6.5707129693
 10
308.8433026945
 20
-5.169319613
  0
SPLINE
  5
111
330
1F
100
AcDbEntity
  8
0
  6
Continuous
 62
     7
370
    25
100
AcDbSpline
210
0.0
220
0.0
230
1.0
 70
     8
 71
     3
 72
    27
 73
    23
 74
     0
 42
0.00000001
 43
0.00000001
 40
0.0
 40
0.0
 40
0.0
 40
0.0
 40
0.0146601278500351
 40
0.0682114349662284
 40
0.1223779939562997
 40
0.1765379880353191
 40
0.2298265275876241
 40
0.2831134321023237
 40
0.3353932856217502
 40
0.3876783251524185
 40
0.4403927443394438
 40
0.4931109529663589
 40
0.5470109708680688
 40
0.6009074975462224
 40
0.6549260535687836
 40
0.7089388352873112
 40
0.761842468227259
 40
0.8147469588770775
 40
0.8670482104158276
 40
0.9193548971333458
 40
0.9724305979016062
 40
1.0
 40
1.0
 40
1.0
 40
1.0
 10
293.9636683577039
 20
-12.80313760823674
 30
0.0
 10
294.0227573093076
 20
-12.8438057652215
 30
0.0
 10
294.2976895759811
 20
-13.03302876339314
 30
0.0
 10
294.887843338942
 20
-13.20220954319482
 30
0.0
 10
295.7048682173781
 20
-13.28157669448354
 30
0.0
 10
296.5635300629588
 20
-13.15504134578867
 30
0.0
 10
297.4200312458988
 20
-12.83324134648136
 30
0.0
 10
298.2458066723742
 20
-12.33476044886204
 30
0.0
 10
299.0189434885028
 20
-11.66973708031605
 30
0.0
 10
299.7274824068916
 20
-10.86733610268104
 30
0.0
 10
300.3582802707245
 20
-9.941937085799193
 30
0.0
 10
300.9087195352487
 20
-8.918322969551703
 30
0.0
 10
301.3644515888832
 20
-7.825180297018515
 30
0.0
 10
301.7222061460931
 20
-6.696037015279689
 30
0.0
 10
301.97121290763
 20
-5.574087592453446
 30
0.0
 10
302.1115010966877
 20
-4.500871434345417
 30
0.0
 10
302.1403919031271
 20
-3.512766838323307
 30
0.0
 10
302.0637544172736
 20
-2.636513209763693
 30
0.0
 10
301.8820940429225
 20
-1.890299687977416
 30
0.0
 10
301.5945357510018
 20
-1.291569677254266
 30
0.0
 10
301.2809259966796
 20
-0.8945070795958674
 30
0.0
 10
301.0271052540341
 20
-0.761948145211945
 30
0.0
 10
300.9403338833474
 20
-0.7166314373914171
 30
0.0
  0
LWPOLYLINE
  5
112
330
1F
100
AcDbEntity
  8
0
  6
Continuous
 62
     7
370
    25
100
AcDbPolyline
 90
      105
 70
   128
 43
0.0
 10
253.3354203714
 20
-90.697623731
 10
254.7209202442
 20
-89.9447106878
 10
256.182639491
 20
-89.2414639511
 10
257.7152444567
 20
-88.5904495919
 10
259.3131428322
 20
-87.9940430911
 10
260.9705040594
 20
-87.4544206713
 10
262.681280607
 20
-86.9735513563
 10
264.4392300369
 20
-86.5531897859
 10
266.2379377823
 20
-86.1948698139
 10
268.0708405537
 20
-85.8998989112
 10
269.9312502876
 20
-85.6693533944
 10
271.8123785507
 20
-85.5040744993
 10
273.70736131
 20
-85.4046653105
 10
275.6092839788
 20
-85.3714885615
 10
277.5112066476
 20
-85.4046653105
 10
279.4061894068
 20
-85.5040744993
 10
281.2873176699
 20
-85.6693533944
 10
283.1477274038
 20
-85.8998989112
 10
284.9806301752
 20
-86.1948698139
 10
286.7793379206
 20
-86.5531897859
 10
288.5372873505
 20
-86.9735513563
 10
290.2480638982
 20
-87.4544206713
 10
291.9054251254
 20
-87.9940430911
 10
293.5033235008
 20
-88.5904495919
 10
295.0359284666
 20
-89.2414639511
 10
296.4976477134
 20
-89.9447106878
 10
297.8831475861
 20
-90.697623731
 10
299.1873725462
 20
-91.4974557826
 10
300.405563618
 20
-92.3412883423
 10
301.5332757544
 20
-93.2260423566
 10
302.5663940563
 20
-94.1484894539
 10
303.5011487868
 20
-95.1052637248
 10
304.3341291275
 20
-96.0928740039
 10
305.0622956234
 20
-97.1077166082
 10
305.6829912738
 20
-98.1460884873
 10
306.1939512277
 20
-99.2042007347
 10
306.5933110476
 20
-100.2781924135
 10
306.8796135129
 20
-101.3641446446
 10
307.0518139368
 20
-102.4580949062
 10
307.1092839788
 20
-103.5560514922
 10
307.0518139368
 20
-104.6540080782
 10
306.8796135129
 20
-105.7479583398
 10
306.5933110476
 20
-106.8339105709
 10
306.1939512277
 20
-107.9079022497
 10
305.6829912738
 20
-108.9660144971
 10
305.0622956234
 20
-110.0043863762
 10
304.3341291275
 20
-111.0192289805
 10
303.5011487868
 20
-112.0068392596
 10
302.5663940563
 20
-112.9636135305
 10
301.5332757544
 20
-113.8860606278
 10
300.405563618
 20
-114.7708146421
 10
299.1873725462
 20
-115.6146472017
 10
297.8831475861
 20
-116.4144792534
 10
296.4976477134
 20
-117.1673922966
 10
295.0359284666
 20
-117.8706390333
 10
293.5033235008
 20
-118.5216533925
 10
291.9054251254
 20
-119.1180598933
 10
290.2480638982
 20
-119.657682313
 10
288.5372873505
 20
-120.1385516281
 10
286.7793379206
 20
-120.5589131985
 10
284.9806301752
 20
-120.9172331705
 10
283.1477274038
 20
-121.2122040732
 10
281.2873176699
 20
-121.44274959
 10
279.4061894068
 20
-121.6080284851
 10
277.5112066476
 20
-121.7074376739
 10
275.6092839788
 20
-121.7406144229
 10
273.70736131
 20
-121.7074376739
 10
271.8123785507
 20
-121.6080284851
 10
269.9312502876
 20
-121.44274959
 10
268.0708405537
 20
-121.2122040732
 10
266.2379377823
 20
-120.9172331705
 10
264.4392300369
 20
-120.5589131985
 10
262.681280607
 20
-120.1385516281
 10
260.9705040594
 20
-119.657682313
 10
259.3131428322
 20
-119.1180598933
 10
257.7152444567
 20
-118.5216533925
 10
256.182639491
 20
-117.8706390333
 10
254.7209202442
 20
-117.1673922966
 10
253.3354203714
 20
-116.4144792534
 10
252.0311954114
 20
-115.6146472017
 10
250.8130043396
 20
-114.7708146421
 10
249.6852922031
 20
-113.8860606278
 10
248.6521739013
 20
-112.9636135305
 10
247.7174191707
 20
-112.0068392596
 10
246.88443883
 20
-111.0192289805
 10
246.1562723342
 20
-110.0043863762
 10
245.5355766838
 20
-108.9660144971
 10
245.0246167299
 20
-107.9079022497
 10
244.6252569099
 20
-106.8339105709
 10
244.3389544447
 20
-105.7479583398
 10
244.1667540207
 20
-104.6540080782
 10
244.1092839788
 20
-103.5560514922
 10
244.1667540207
 20
-102.4580949062
 10
244.3389544447
 20
-101.3641446446
 10
244.6252569099
 20
-100.2781924135
 10
245.0246167299
 20
-99.2042007347
 10
245.5355766838
 20
-98.1460884873
 10
246.1562723342
 20
-97.1077166082
 10
246.88443883
 20
-96.0928740039
 10
247.7174191707
 20
-95.1052637248
 10
248.6521739013
 20
-94.1484894539
 10
249.6852922031
 20
-93.2260423566
 10
250.8130043396
 20
-92.3412883423
 10
252.0311954114
 20
-91.4974557826
 10
253.3354203714
 20
-90.697623731
  0
LWPOLYLINE
  5
113
330
1F
100
AcDbEntity
  8
0
  6
Continuous
 62
     7
370
    25
100
AcDbPolyline
 90
       94
 70
   128
 43
0.0
 10
257.9316144491
 20
-93.3509500944
 10
256.7785290299
 20
-94.063175675
 10
255.7113640264
 20
-94.8187150706
 10
254.734988668
 20
-95.6141209283
 10
253.8538579313
 20
-96.4457639936
 10
253.0719922138
 20
-97.3098496699
 10
252.3929589895
 20
-98.2024353326
 10
251.8198565312
 20
-99.1194483178
 10
251.355299774
 20
-100.0567045058
 10
251.0014083838
 20
-101.0099274115
 10
250.7597970859
 20
-101.9747676973
 10
250.6315682973
 20
-102.9468230184
 10
250.6173070964
 20
-103.9216581094
 10
250.7170785538
 20
-104.8948250211
 10
250.9304274353
 20
-105.8618834164
 10
251.2563802789
 20
-106.8184208294
 10
251.6934498365
 20
-107.7600727994
 10
252.2396418599
 20
-108.6825427844
 10
252.8924642002
 20
-109.5816217655
 10
253.6489381789
 20
-110.4532074514
 10
254.5056121786
 20
-111.2933229966
 10
255.4585773924
 20
-112.0981351466
 10
256.5034856586
 20
-112.863971728
 10
257.6355693004
 20
-113.5873384043
 10
258.8496628799
 20
-114.2649346192
 10
260.1402267664
 20
-114.8936686566
 10
261.501372413
 20
-115.4706717472
 10
262.9268892243
 20
-115.9933111584
 10
264.410272894
 20
-116.4592022063
 10
265.9447550827
 20
-116.866219137
 10
267.5233343
 20
-117.2125048255
 10
269.1388078512
 20
-117.4964792498
 10
270.7838047009
 20
-117.7168466995
 10
272.4508191057
 20
-117.8726016886
 10
274.1322448614
 20
-117.9630335429
 10
275.8204100077
 20
-117.9877296424
 10
277.5076118344
 20
-117.9465773046
 10
279.1861520265
 20
-117.8397642981
 10
280.8483717901
 20
-117.6677779862
 10
282.4866867976
 20
-117.4314031029
 10
284.0936217935
 20
-117.1317181727
 10
285.6618447019
 20
-116.7700905892
 10
287.1842000814
 20
-116.3481703761
 10
288.6537417735
 20
-115.8678826584
 10
290.0637645966
 20
-115.3314188791
 10
291.4078349399
 20
-114.7412267991
 10
292.6798201188
 20
-114.0999993296
 10
293.8739163565
 20
-113.4106622445
 10
294.9846752659
 20
-112.6763608308
 10
296.0070287087
 20
-111.9004455375
 10
296.9363119208
 20
-111.0864566879
 10
297.768284796
 20
-110.2381083267
 10
298.4991512328
 20
-109.3592712727
 10
299.1255764554
 20
-108.4539554578
 10
299.6447022291
 20
-107.5262916306
 10
300.0541599021
 20
-106.5805125082
 10
300.3520812129
 20
-105.6209334639
 10
300.537106815
 20
-104.6519328368
 10
300.6083924789
 20
-103.6779319544
 10
300.5656129445
 20
-102.7033749594
 10
300.408963405
 20
-101.7327085319
 10
300.1391586164
 20
-100.7703616001
 10
299.757429636
 20
-99.8207251324
 10
299.2655182056
 20
-98.8881321021
 10
298.6656688042
 20
-97.9768377174
 10
297.960618407
 20
-97.0910000054
 10
297.1535839974
 20
-96.2346608406
 10
296.2482478881
 20
-95.4117275021
 10
295.2487409203
 20
-94.6259548459
 10
294.159623615
 20
-93.8809281726
 10
292.9858653647
 20
-93.1800468679
 10
291.732821759
 20
-92.5265088924
 10
290.4062101484
 20
-91.9232961901
 10
289.0120835576
 20
-91.3731610821
 10
287.5568030664
 20
-90.8786137088
 10
286.0470087859
 20
-90.4419105764
 10
284.4895895611
 20
-90.0650442611
 10
282.8916515387
 20
-89.7497343176
 10
281.2604857434
 20
-89.4974194326
 10
279.6035348106
 20
-89.3092508613
 10
277.9283590274
 20
-89.1860871736
 10
276.2426018366
 20
-89.1284903373
 10
274.5539549617
 20
-89.1367231533
 10
272.8701233111
 20
-89.2107480573
 10
271.1987898223
 20
-89.3502272907
 10
269.5475804068
 20
-89.5545244417
 10
267.9240291544
 20
-89.8227073492
 10
266.335543957
 20
-90.1535523561
 10
264.7893727084
 20
-90.5455498926
 10
263.2925702332
 20
-90.9969113638
 10
261.8519660978
 20
-91.5055773108
 10
260.4741334486
 20
-92.0692268077
 10
259.1653590199
 20
-92.6852880509
 10
257.9316144491
 20
-93.3509500944
  0
SPLINE
  5
114
330
1F
100
AcDbEntity
  8
0
  6
Continuous
 62
     7
370
    25
100
AcDbSpline
210
0.0
220
0.0
230
1.0
 70
     8
 71
     3
 72
    22
 73
    18
 74
     0
 42
0.00000001
 43
0.00000001
 40
0.0
 40
0.0
 40
0.0
 40
0.0
 40
0.0704014009453842
 40
0.1408074926796383
 40
0.21115769416276
 40
0.2815147839868913
 40
0.352914328011791
 40
0.4243125997996444
 40
0.4965311675405687
 40
0.5687409824922752
 40
0.6397889145600759
 40
0.7108346666837139
 40
0.7805377494209871
 40
0.8502477465037754
 40
0.9205302219639484
 40
0.9908177497650211
 40
1.0
 40
1.0
 40
1.0
 40
1.0
 10
253.3354203713959
 20
-88.24800129533051
 30
0.0
 10
253.6129975975376
 20
-88.07570250336431
 30
0.0
 10
254.1681705445689
 20
-87.7310934393016
 30
0.0
 10
255.0138697010774
 20
-87.05266100339642
 30
0.0
 10
255.8349297358087
 20
-86.27484482893871
 30
0.0
 10
256.6112110593585
 20
-85.40278427300196
 30
0.0
 10
257.3119492022447
 20
-84.45496158286015
 30
0.0
 10
257.9152123637278
 20
-83.44867184934576
 30
0.0
 10
258.3866030990925
 20
-82.40895714619735
 30
0.0
 10
258.7078604322949
 20
-81.36725387375752
 30
0.0
 10
258.8569266254996
 20
-80.35503345362727
 30
0.0
 10
258.8383206188794
 20
-79.4045986871424
 30
0.0
 10
258.64838704506
 20
-78.54096750778945
 30
0.0
 10
258.3096317915785
 20
-77.77668019665182
 30
0.0
 10
257.8164510672859
 20
-77.15593744520987
 30
0.0
 10
257.4044975549996
 20
-76.77107217658278
 30
0.0
 10
257.1375939719137
 20
-76.65320924958175
 30
0.0
 10
257.1067548837839
 20
-76.63959090414407
 30
0.0
  0
SPLINE
  5
115
330
1F
100
AcDbEntity
  8
0
  6
Continuous
 62
     7
370
    25
100
AcDbSpline
210
0.0
220
0.0
230
1.0
 70
     8
 71
     3
 72
    13
 73
     9
 74
     0
 42
0.00000001
 43
0.00000001
 40
0.0
 40
0.0
 40
0.0
 40
0.0
 40
0.0180265566881895
 40
0.2318886296788972
 40
0.4485815033866552
 40
0.6652496642528356
 40
0.832627133789593
 40
1.0
 40
1.0
 40
1.0
 40
1.0
 10
250.11661648061
 20
-88.74732023937065
 30
0.0
 10
250.1292082656336
 20
-88.75742971658207
 30
0.0
 10
250.2911854987147
 20
-88.88747522986965
 30
0.0
 10
250.697043897634
 20
-88.98103426600261
 30
0.0
 10
251.3374517150675
 20
-89.00706549409331
 30
0.0
 10
252.0174591036344
 20
-88.85469092426715
 30
0.0
 10
252.6886815373072
 20
-88.59885124136821
 30
0.0
 10
253.1198427364072
 20
-88.36495020517806
 30
0.0
 10
253.3354203713959
 20
-88.24800129533051
 30
0.0
  0
LWPOLYLINE
  5
116
330
1F
100
AcDbEntity
  8
0
  6
Continuous
 62
     7
370
    25
100
AcDbPolyline
 90
       50
 70
   128
 43
0.0
 10
281.6196916189
 20
-3.3324013614
 10
281.6603289772
 20
-2.5780234639
 10
281.7815737877
 20
-1.7891135353
 10
281.9814352142
 20
-0.9786254551
 10
282.2566315373
 20
-0.1598674149
 10
282.6026440413
 20
0.6537166007
 10
283.0137912102
 20
1.4487675649
 10
283.4833220189
 20
2.2122307626
 10
284.0035267846
 20
2.9315701493
 10
284.5658637593
 20
3.5949741921
 10
285.1610993856
 20
4.1915498151
 10
285.7794599108
 20
4.711501263
 10
286.4107918722
 20
5.1462909473
 10
287.0447288165
 20
5.4887796336
 10
287.6708615167
 20
5.7333436669
 10
288.2789088909
 20
5.8759673127
 10
288.8588868183
 20
5.9143086947
 10
289.4012720772
 20
5.8477382484
 10
289.8971587167
 20
5.6773490586
 10
290.3384042919
 20
5.4059389112
 10
290.7177635626
 20
5.0379643534
 10
291.0290074601
 20
4.5794675171
 10
291.2670253682
 20
4.0379769077
 10
291.4279090395
 20
3.4223837861
 10
291.5090167684
 20
2.7427961743
 10
291.5090167684
 20
2.0103728822
 10
291.4279090395
 20
1.2371402798
 10
291.2670253682
 20
0.4357948252
 10
291.0290074601
 20
-0.3805054114
 10
290.7177635626
 20
-1.1983568027
 10
290.3384042919
 20
-2.0043302514
 10
289.8971587167
 20
-2.7851916959
 10
289.4012720772
 20
-3.5281194128
 10
288.8588868183
 20
-4.2209145495
 10
288.2789088909
 20
-4.852201429
 10
287.6708615167
 20
-5.4116143383
 10
287.0447288165
 20
-5.8899677327
 10
286.4107918722
 20
-6.2794070629
 10
285.7794599108
 20
-6.5735377457
 10
285.1610993856
 20
-6.7675301635
 10
284.5658637593
 20
-6.8581989662
 10
284.0035267846
 20
-6.8440553745
 10
283.4833220189
 20
-6.7253316258
 10
283.0137912102
 20
-6.5039771607
 10
282.6026440413
 20
-6.1836266136
 10
282.2566315373
 20
-5.7695401314
 10
281.9814352142
 20
-5.2685170028
 10
281.7815737877
 20
-4.6887840137
 10
281.6603289772
 20
-4.0398603638
 10
281.6196916189
 20
-3.3324013614
  0
LWPOLYLINE
  5
117
330
1F
100
AcDbEntity
  8
0
  6
Continuous
 62
     7
370
    25
100
AcDbPolyline
 90
       42
 70
   128
 43
0.0
 10
283.0339051812
 20
-2.5159932496
 10
283.0753401403
 20
-1.8688515045
 10
283.1986738173
 20
-1.189038428
 10
283.4010153752
 20
-0.4924882623
 10
283.6776220995
 20
0.2044724469
 10
284.022010563
 20
0.8855075315
 10
284.4261085921
 20
1.5346541062
 10
284.8804444713
 20
2.1366967255
 10
285.3743689528
 20
2.6775240207
 10
285.8963048653
 20
3.1444594583
 10
286.4340184735
 20
3.5265584676
 10
286.9749062261
 20
3.8148649714
 10
287.5062901726
 20
4.0026213099
 10
288.0157151237
 20
4.0854266334
 10
288.4912405904
 20
4.0613400554
 10
288.9217206586
 20
3.930926145
 10
289.2970652405
 20
3.6972416935
 10
289.6084765772
 20
3.3657640665
 10
289.8486554509
 20
2.9442628187
 10
290.0119722723
 20
2.442617582
 10
290.0945990337
 20
1.8725864955
 10
290.0945990337
 20
1.2475306049
 10
290.0119722723
 20
0.5821006905
 10
289.8486554509
 20
-0.1081061347
 10
289.6084765772
 20
-0.8069120075
 10
289.2970652405
 20
-1.4979375106
 10
288.9217206586
 20
-2.1649855919
 10
288.4912405904
 20
-2.7924212098
 10
288.0157151237
 20
-3.3655378051
 10
287.5062901726
 20
-3.8709020106
 10
286.9749062261
 20
-4.2966685176
 10
286.4340184735
 20
-4.6328577201
 10
285.8963048653
 20
-4.8715896281
 10
285.3743689528
 20
-5.0072685681
 10
284.8804444713
 20
-5.0367143406
 10
284.4261085921
 20
-4.9592367618
 10
284.022010563
 20
-4.7766518404
 10
283.6776220995
 20
-4.4932392121
 10
283.4010153752
 20
-4.1156418289
 10
283.1986738173
 20
-3.6527102534
 10
283.0753401403
 20
-3.1152952092
 10
283.0339051812
 20
-2.5159932496
  0
LWPOLYLINE
  5
118
330
1F
100
AcDbEntity
  8
0
  6
Continuous
 62
     7
370
    25
100
AcDbPolyline
 90
       50
 70
   128
 43
0.0
 10
237.7790711853
 20
-79.2665831648
 10
237.8197085436
 20
-78.5122052673
 10
237.9409533542
 20
-77.7232953388
 10
238.1408147806
 20
-76.9128072585
 10
238.4160111038
 20
-76.0940492183
 10
238.7620236077
 20
-75.2804652027
 10
239.1731707766
 20
-74.4854142386
 10
239.6427015853
 20
-73.7219510409
 10
240.162906351
 20
-73.0026116542
 10
240.7252433258
 20
-72.3392076113
 10
241.320478952
 20
-71.7426319883
 10
241.9388394772
 20
-71.2226805404
 10
242.5701714387
 20
-70.7878908561
 10
243.204108383
 20
-70.4454021699
 10
243.8302410831
 20
-70.2008381365
 10
244.4382884574
 20
-70.0582144907
 10
245.0182663847
 20
-70.0198731087
 10
245.5606516436
 20
-70.0864435551
 10
246.0565382831
 20
-70.2568327448
 10
246.4977838583
 20
-70.5282428922
 10
246.877143129
 20
-70.89621745
 10
247.1883870265
 20
-71.3547142863
 10
247.4264049346
 20
-71.8962048957
 10
247.5872886059
 20
-72.5117980173
 10
247.6683963349
 20
-73.1913856291
 10
247.6683963349
 20
-73.9238089213
 10
247.5872886059
 20
-74.6970415236
 10
247.4264049346
 20
-75.4983869782
 10
247.1883870265
 20
-76.3146872148
 10
246.877143129
 20
-77.1325386061
 10
246.4977838583
 20
-77.9385120549
 10
246.0565382831
 20
-78.7193734993
 10
245.5606516436
 20
-79.4623012162
 10
245.0182663847
 20
-80.1550963529
 10
244.4382884574
 20
-80.7863832325
 10
243.8302410831
 20
-81.3457961417
 10
243.204108383
 20
-81.8241495362
 10
242.5701714387
 20
-82.2135888663
 10
241.9388394772
 20
-82.5077195491
 10
241.320478952
 20
-82.701711967
 10
240.7252433258
 20
-82.7923807696
 10
240.162906351
 20
-82.7782371779
 10
239.6427015853
 20
-82.6595134292
 10
239.1731707766
 20
-82.4381589641
 10
238.7620236077
 20
-82.117808417
 10
238.4160111038
 20
-81.7037219348
 10
238.1408147806
 20
-81.2026988062
 10
237.9409533542
 20
-80.6229658171
 10
237.8197085436
 20
-79.9740421672
 10
237.7790711853
 20
-79.2665831648
  0
LWPOLYLINE
  5
119
330
1F
100
AcDbEntity
  8
0
  6
Continuous
 62
     7
370
    25
100
AcDbPolyline
 90
       42
 70
   128
 43
0.0
 10
239.1932847477
 20
-78.450175053
 10
239.2347197068
 20
-77.8030333079
 10
239.3580533837
 20
-77.1232202314
 10
239.5603949416
 20
-76.4266700657
 10
239.8370016659
 20
-75.7297093565
 10
240.1813901295
 20
-75.0486742719
 10
240.5854881585
 20
-74.3995276972
 10
241.0398240377
 20
-73.7974850779
 10
241.5337485192
 20
-73.2566577827
 10
242.0556844318
 20
-72.7897223451
 10
242.5933980399
 20
-72.4076233359
 10
243.1342857925
 20
-72.119316832
 10
243.6656697391
 20
-71.9315604936
 10
244.1750946902
 20
-71.84875517
 10
244.6506201568
 20
-71.872841748
 10
245.081100225
 20
-72.0032556585
 10
245.4564448069
 20
-72.2369401099
 10
245.7678561436
 20
-72.5684177369
 10
246.0080350173
 20
-72.9899189847
 10
246.1713518388
 20
-73.4915642215
 10
246.2539786001
 20
-74.0615953079
 10
246.2539786001
 20
-74.6866511985
 10
246.1713518388
 20
-75.352081113
 10
246.0080350173
 20
-76.0422879381
 10
245.7678561436
 20
-76.7410938109
 10
245.4564448069
 20
-77.4321193141
 10
245.081100225
 20
-78.0991673954
 10
244.6506201568
 20
-78.7266030132
 10
244.1750946902
 20
-79.2997196085
 10
243.6656697391
 20
-79.805083814
 10
243.1342857925
 20
-80.230850321
 10
242.5933980399
 20
-80.5670395235
 10
242.0556844318
 20
-80.8057714315
 10
241.5337485192
 20
-80.9414503715
 10
241.0398240377
 20
-80.970896144
 10
240.5854881585
 20
-80.8934185652
 10
240.1813901295
 20
-80.7108336438
 10
239.8370016659
 20
-80.4274210156
 10
239.5603949416
 20
-80.0498236324
 10
239.3580533837
 20
-79.5868920568
 10
239.2347197068
 20
-79.0494770126
 10
239.1932847477
 20
-78.450175053
  0
LWPOLYLINE
  5
11A
330
1F
100
AcDbEntity
  8
0
  6
Continuous
 62
     1
370
    25
100
AcDbPolyline
 90
       40
 70
   128
 43
0.0
 10
278.0841577129
 20
-17.6195433183
 10
278.1247951693
 20
-19.1960003027
 10
278.2465592568
 20
-20.8136239749
 10
278.4490056715
 20
-22.4665118016
 10
278.7313957083
 20
-24.1486325745
 10
279.0926989566
 20
-25.8538484171
 10
279.53159706
 20
-27.5759371819
 10
280.0464885271
 20
-29.3086151536
 10
280.6354945746
 20
-31.0455599783
 10
281.2964659833
 20
-32.7804337327
 10
282.0269909403
 20
-34.5069060505
 10
282.8244038392
 20
-36.2186772216
 10
283.6857950069
 20
-37.9095011785
 10
284.6080213203
 20
-39.573208288
 10
285.5877176757
 20
-41.2037278632
 10
286.6213092673
 20
-42.7951103152
 10
287.7050246315
 20
-44.3415488618
 10
288.8349094084
 20
-45.8374007166
 10
290.006840771
 20
-47.2772076782
 10
291.2165424689
 20
-48.6557160474
 10
292.4596004318
 20
-49.9678957965
 10
293.731478876
 20
-51.2089589239
 10
295.0275368549
 20
-52.3743769248
 10
296.3430451935
 20
-53.4598973155
 10
297.6732037446
 20
-54.4615591496
 10
299.0131589039
 20
-55.3757074718
 10
300.3580213203
 20
-56.1990066539
 10
301.7028837367
 20
-56.9284525666
 10
303.042838896
 20
-57.5613835409
 10
304.3729974471
 20
-58.0954900801
 10
305.6885057858
 20
-58.5288232876
 10
306.9845637647
 20
-58.8598019773
 10
308.2564422088
 20
-59.0872184441
 10
309.4995001717
 20
-59.2102428698
 10
310.7092018696
 20
-59.2284263516
 10
311.8811332322
 20
-59.14170254
 10
313.0110180092
 20
-58.9503878809
 10
314.0947333733
 20
-58.6551804605
 10
315.1283249649
 20
-58.2571574589
 10
316.1067413593
 20
-57.7585102445
  0
ARC
  5
11B
330
1F
100
AcDbEntity
  8
0
  6
Continuous
 62
     1
370
    25
100
AcDbCircle
 10
296.2066107895
 20
-16.6109335942
 30
0.0
 40
18.15049859057413
100
AcDbArc
 50
141.5031683371
 51
183.1855247964
  0
LWPOLYLINE
  5
11C
330
1F
100
AcDbEntity
  8
0
  6
Continuous
 62
     1
370
    25
100
AcDbPolyline
 90
       40
 70
   128
 43
0.0
 10
253.3354203714
 20
-60.4856136912
 10
254.7209202442
 20
-59.732700648
 10
256.182639491
 20
-59.0294539113
 10
257.7152444567
 20
-58.3784395521
 10
259.3131428322
 20
-57.7820330513
 10
260.9705040594
 20
-57.2424106316
 10
262.681280607
 20
-56.7615413165
 10
264.4392300369
 20
-56.3411797461
 10
266.2379377823
 20
-55.9828597742
 10
268.0708405537
 20
-55.6878888714
 10
269.9312502876
 20
-55.4573433547
 10
271.8123785507
 20
-55.2920644595
 10
273.70736131
 20
-55.1926552708
 10
275.6092839788
 20
-55.1594785217
 10
277.5112066476
 20
-55.1926552708
 10
279.4061894068
 20
-55.2920644595
 10
281.2873176699
 20
-55.4573433547
 10
283.1477274038
 20
-55.6878888714
 10
284.9806301752
 20
-55.9828597742
 10
286.7793379206
 20
-56.3411797461
 10
288.5372873505
 20
-56.7615413165
 10
290.2480638982
 20
-57.2424106316
 10
291.9054251254
 20
-57.7820330513
 10
293.5033235008
 20
-58.3784395521
 10
295.0359284666
 20
-59.0294539113
 10
296.4976477134
 20
-59.732700648
 10
297.8831475861
 20
-60.4856136912
 10
299.1873725462
 20
-61.2854457429
 10
300.405563618
 20
-62.1292783026
 10
301.5332757544
 20
-63.0140323168
 10
302.5663940563
 20
-63.9364794141
 10
303.5011487868
 20
-64.893253685
 10
304.3341291275
 20
-65.8808639641
 10
305.0622956234
 20
-66.8957065685
 10
305.6829912738
 20
-67.9340784475
 10
306.1939512277
 20
-68.9921906949
 10
306.5933110476
 20
-70.0661823737
 10
306.8796135129
 20
-71.1521346049
 10
307.0518139368
 20
-72.2460848664
 10
307.1092839788
 20
-73.3440414524
  0
ARC
  5
11D
330
1F
100
AcDbEntity
  8
0
  6
Continuous
 62
     1
370
    25
100
AcDbCircle
 10
261.5187309324
 20
-76.6793651034
 30
0.0
 40
18.14398403150504
100
AcDbArc
 50
116.8091834488
 51
158.5141538321
  0
ENDSEC
  0
SECTION
  2
OBJECTS
  0
DICTIONARY
  5
C
330
0
100
AcDbDictionary
281
     1
  3
ACAD_GROUP
350
D
  3
ACAD_LAYOUT
350
1A
  3
ACAD_MLINESTYLE
350
17
  3
ACAD_PLOTSETTINGS
350
19
  3
ACAD_PLOTSTYLENAME
350
E
  3
ACAD_SCALELIST
350
47
  3
DWGPROPS
350
11E
  0
DICTIONARY
  5
D
102
{ACAD_REACTORS
330
C
102
}
330
C
100
AcDbDictionary
281
     1
  0
DICTIONARY
  5
1A
102
{ACAD_REACTORS
330
C
102
}
330
C
100
AcDbDictionary
281
     1
  3
Layout1
350
1E
  3
Layout2
350
26
  3
Model
350
22
  0
DICTIONARY
  5
17
102
{ACAD_REACTORS
330
C
102
}
330
C
100
AcDbDictionary
281
     1
  3
Standard
350
18
  0
DICTIONARY
  5
19
102
{ACAD_REACTORS
330
C
102
}
330
C
100
AcDbDictionary
281
     1
  0
ACDBDICTIONARYWDFLT
  5
E
102
{ACAD_REACTORS
330
C
102
}
330
C
100
AcDbDictionary
281
     1
  3
Normal
350
F
100
AcDbDictionaryWithDefault
340
F
  0
DICTIONARY
  5
47
102
{ACAD_REACTORS
330
C
102
}
330
C
100
AcDbDictionary
281
     1
  3
A0
350
48
  3
A1
350
49
  3
A2
350
4A
  3
A3
350
4B
  3
A4
350
4C
  3
A5
350
4D
  3
A6
350
4E
  3
A7
350
4F
  3
A8
350
50
  3
A9
350
51
  3
B0
350
52
  3
B1
350
53
  3
B2
350
54
  3
B3
350
55
  3
B4
350
56
  3
B5
350
57
  3
B6
350
58
  3
B7
350
59
  3
B8
350
5A
  3
B9
350
5B
  3
C0
350
5C
  3
C1
350
5D
  3
C2
350
5E
  3
C3
350
5F
  3
C4
350
60
  3
C5
350
61
  3
C6
350
62
  3
C7
350
63
  3
C8
350
64
  3
C9
350
65
  3
D0
350
66
  3
D1
350
67
  3
D2
350
68
  0
XRECORD
  5
11E
102
{ACAD_REACTORS
330
C
102
}
330
C
100
AcDbXrecord
280
     1
  1
DWGPROPS COOKIE
  2

  3

  4

  6

  7

  8
b.kav
  9

300
=
301
=
302
=
303
=
304
=
305
=
306
=
307
=
308
=
309
=
 40
0.0
 41
2459741.479546146
 42
2459741.479546331
  1

 90
        0
  0
LAYOUT
  5
1E
102
{ACAD_REACTORS
330
1A
102
}
330
1A
100
AcDbPlotSettings
  1

  2
none_device
  4

  6

 40
0.0
 41
0.0
 42
0.0
 43
0.0
 44
0.0
 45
0.0
 46
0.0
 47
0.0
 48
0.0
 49
0.0
140
0.0
141
0.0
142
1.0
143
1.0
 70
   688
 72
     1
 73
     0
 74
     5
  7

 75
    16
147
1.0
148
0.0
149
0.0
100
AcDbLayout
  1
Layout1
 70
     1
 71
     1
 10
0.0
 20
0.0
 11
420.0
 21
297.0
 12
0.0
 22
0.0
 32
0.0
 14
1.0000000000E+20
 24
1.0000000000E+20
 34
1.0000000000E+20
 15
-1.0000000000E+20
 25
-1.0000000000E+20
 35
-1.0000000000E+20
146
0.0
 13
0.0
 23
0.0
 33
0.0
 16
1.0
 26
0.0
 36
0.0
 17
0.0
 27
1.0
 37
0.0
 76
     0
330
1B
  0
LAYOUT
  5
26
102
{ACAD_REACTORS
330
1A
102
}
330
1A
100
AcDbPlotSettings
  1

  2
none_device
  4

  6

 40
0.0
 41
0.0
 42
0.0
 43
0.0
 44
0.0
 45
0.0
 46
0.0
 47
0.0
 48
0.0
 49
0.0
140
0.0
141
0.0
142
1.0
143
1.0
 70
   688
 72
     1
 73
     0
 74
     5
  7

 75
    16
147
1.0
148
0.0
149
0.0
100
AcDbLayout
  1
Layout2
 70
     1
 71
     2
 10
0.0
 20
0.0
 11
0.0
 21
0.0
 12
0.0
 22
0.0
 32
0.0
 14
0.0
 24
0.0
 34
0.0
 15
0.0
 25
0.0
 35
0.0
146
0.0
 13
0.0
 23
0.0
 33
0.0
 16
1.0
 26
0.0
 36
0.0
 17
0.0
 27
1.0
 37
0.0
 76
     0
330
23
  0
LAYOUT
  5
22
102
{ACAD_REACTORS
330
1A
102
}
330
1A
100
AcDbPlotSettings
  1

  2
none_device
  4
Letter_(8.50_x_11.00_Inches)
  6

 40
6.35
 41
6.35
 42
6.35000508
 43
6.35000508
 44
215.9
 45
279.4
 46
0.0
 47
0.0
 48
0.0
 49
0.0
140
0.0
141
0.0
142
1.0
143
1.0
 70
  1712
 72
     1
 73
     0
 74
     0
  7

 75
     0
147
1.0
148
0.0
149
0.0
100
AcDbLayout
  1
Model
 70
     1
 71
     0
 10
0.0
 20
0.0
 11
279.4
 21
215.9
 12
0.0
 22
0.0
 32
0.0
 14
0.0
 24
0.0
 34
0.0
 15
279.4
 25
215.9
 35
0.0
146
0.0
 13
0.0
 23
0.0
 33
0.0
 16
1.0
 26
0.0
 36
0.0
 17
0.0
 27
1.0
 37
0.0
 76
     0
330
1F
331
29
  0
MLINESTYLE
  5
18
102
{ACAD_REACTORS
330
17
102
}
330
17
100
AcDbMlineStyle
  2
Standard
 70
     0
  3

 62
   256
 51
90.0
 52
90.0
 71
     2
 49
0.5
 62
   256
  6
BYLAYER
 49
-0.5
 62
   256
  6
BYLAYER
  0
ACDBPLACEHOLDER
  5
F
102
{ACAD_REACTORS
330
E
102
}
330
E
  0
SCALE
  5
48
102
{ACAD_REACTORS
330
47
102
}
330
47
100
AcDbScale
 70
     0
300
1:1
140
1.0
141
1.0
290
     1
  0
SCALE
  5
49
102
{ACAD_REACTORS
330
47
102
}
330
47
100
AcDbScale
 70
     0
300
1:2
140
1.0
141
2.0
290
     0
  0
SCALE
  5
4A
102
{ACAD_REACTORS
330
47
102
}
330
47
100
AcDbScale
 70
     0
300
1:4
140
1.0
141
4.0
290
     0
  0
SCALE
  5
4B
102
{ACAD_REACTORS
330
47
102
}
330
47
100
AcDbScale
 70
     0
300
1:5
140
1.0
141
5.0
290
     0
  0
SCALE
  5
4C
102
{ACAD_REACTORS
330
47
102
}
330
47
100
AcDbScale
 70
     0
300
1:8
140
1.0
141
8.0
290
     0
  0
SCALE
  5
4D
102
{ACAD_REACTORS
330
47
102
}
330
47
100
AcDbScale
 70
     0
300
1:10
140
1.0
141
10.0
290
     0
  0
SCALE
  5
4E
102
{ACAD_REACTORS
330
47
102
}
330
47
100
AcDbScale
 70
     0
300
1:16
140
1.0
141
16.0
290
     0
  0
SCALE
  5
4F
102
{ACAD_REACTORS
330
47
102
}
330
47
100
AcDbScale
 70
     0
300
1:20
140
1.0
141
20.0
290
     0
  0
SCALE
  5
50
102
{ACAD_REACTORS
330
47
102
}
330
47
100
AcDbScale
 70
     0
300
1:30
140
1.0
141
30.0
290
     0
  0
SCALE
  5
51
102
{ACAD_REACTORS
330
47
102
}
330
47
100
AcDbScale
 70
     0
300
1:40
140
1.0
141
40.0
290
     0
  0
SCALE
  5
52
102
{ACAD_REACTORS
330
47
102
}
330
47
100
AcDbScale
 70
     0
300
1:50
140
1.0
141
50.0
290
     0
  0
SCALE
  5
53
102
{ACAD_REACTORS
330
47
102
}
330
47
100
AcDbScale
 70
     0
300
1:100
140
1.0
141
100.0
290
     0
  0
SCALE
  5
54
102
{ACAD_REACTORS
330
47
102
}
330
47
100
AcDbScale
 70
     0
300
2:1
140
2.0
141
1.0
290
     0
  0
SCALE
  5
55
102
{ACAD_REACTORS
330
47
102
}
330
47
100
AcDbScale
 70
     0
300
4:1
140
4.0
141
1.0
290
     0
  0
SCALE
  5
56
102
{ACAD_REACTORS
330
47
102
}
330
47
100
AcDbScale
 70
     0
300
8:1
140
8.0
141
1.0
290
     0
  0
SCALE
  5
57
102
{ACAD_REACTORS
330
47
102
}
330
47
100
AcDbScale
 70
     0
300
10:1
140
10.0
141
1.0
290
     0
  0
SCALE
  5
58
102
{ACAD_REACTORS
330
47
102
}
330
47
100
AcDbScale
 70
     0
300
100:1
140
100.0
141
1.0
290
     0
  0
SCALE
  5
59
102
{ACAD_REACTORS
330
47
102
}
330
47
100
AcDbScale
 70
     0
300
1/128" = 1'-0"
140
0.0078125
141
12.0
290
     0
  0
SCALE
  5
5A
102
{ACAD_REACTORS
330
47
102
}
330
47
100
AcDbScale
 70
     0
300
1/64" = 1'-0"
140
0.015625
141
12.0
290
     0
  0
SCALE
  5
5B
102
{ACAD_REACTORS
330
47
102
}
330
47
100
AcDbScale
 70
     0
300
1/32" = 1'-0"
140
0.03125
141
12.0
290
     0
  0
SCALE
  5
5C
102
{ACAD_REACTORS
330
47
102
}
330
47
100
AcDbScale
 70
     0
300
1/16" = 1'-0"
140
0.0625
141
12.0
290
     0
  0
SCALE
  5
5D
102
{ACAD_REACTORS
330
47
102
}
330
47
100
AcDbScale
 70
     0
300
3/32" = 1'-0"
140
0.09375
141
12.0
290
     0
  0
SCALE
  5
5E
102
{ACAD_REACTORS
330
47
102
}
330
47
100
AcDbScale
 70
     0
300
1/8" = 1'-0"
140
0.125
141
12.0
290
     0
  0
SCALE
  5
5F
102
{ACAD_REACTORS
330
47
102
}
330
47
100
AcDbScale
 70
     0
300
3/16" = 1'-0"
140
0.1875
141
12.0
290
     0
  0
SCALE
  5
60
102
{ACAD_REACTORS
330
47
102
}
330
47
100
AcDbScale
 70
     0
300
1/4" = 1'-0"
140
0.25
141
12.0
290
     0
  0
SCALE
  5
61
102
{ACAD_REACTORS
330
47
102
}
330
47
100
AcDbScale
 70
     0
300
3/8" = 1'-0"
140
0.375
141
12.0
290
     0
  0
SCALE
  5
62
102
{ACAD_REACTORS
330
47
102
}
330
47
100
AcDbScale
 70
     0
300
1/2" = 1'-0"
140
0.5
141
12.0
290
     0
  0
SCALE
  5
63
102
{ACAD_REACTORS
330
47
102
}
330
47
100
AcDbScale
 70
     0
300
3/4" = 1'-0"
140
0.75
141
12.0
290
     0
  0
SCALE
  5
64
102
{ACAD_REACTORS
330
47
102
}
330
47
100
AcDbScale
 70
     0
300
1" = 1'-0"
140
1.0
141
12.0
290
     0
  0
SCALE
  5
65
102
{ACAD_REACTORS
330
47
102
}
330
47
100
AcDbScale
 70
     0
300
1-1/2" = 1'-0"
140
1.5
141
12.0
290
     0
  0
SCALE
  5
66
102
{ACAD_REACTORS
330
47
102
}
330
47
100
AcDbScale
 70
     0
300
3" = 1'-0"
140
3.0
141
12.0
290
     0
  0
SCALE
  5
67
102
{ACAD_REACTORS
330
47
102
}
330
47
100
AcDbScale
 70
     0
300
6" = 1'-0"
140
6.0
141
12.0
290
     0
  0
SCALE
  5
68
102
{ACAD_REACTORS
330
47
102
}
330
47
100
AcDbScale
 70
     0
300
1'-0" = 1'-0"
140
12.0
141
12.0
290
     0
  0
ENDSEC
  0
EOF
